A B C D E F G H I J K L M N O P Q R S T U V X Y Z 0-9
Carlos Santana

Início > Carlos San... > acordes

Carlos Santana

Europa (Live)

Dificultad:PrincipiantePrincipiante

por marcnagel

tuner corregir añadir para songbook version para impresion version de texto version rtf e-mail
acordestablaturabajobateríaarmónicaflautacavacopiano Guitar Pro
acordes

Europa (Live)

	  
e:---8-10-10h11-10-8-----------------------8-8h10-10p8-------------------| 
B:-8-----------------10-9p8-9~~---p8----11-------------11----------------| 
G:--------------------------------------------------------10/12\10-h12---| 
D:-----------------------------------------------------------------------| 
A:-----------------------------------------------------------------------| 
E:-----------------------------------------------------------------------| 

e:------------------------8-----------------------------------------------| 
B:-----------------8-9-11---11-9---------------------------8-9-11-9-------| 
G:-(12)p10h12--------------------10/12--10-8-10-p8------10----------10/12-| 
D:---(very light)----------------------------------10---------------------| 
A:------------------------------------------------------------------------| 
E:------------------------------------------------------------------------| 

e:------------------------8-10h11-10-8---------------------8-8h10-10p8-----| 
B:----8--------8--------8--------------10-9p8-9~~--p8---11--------------11-| 
G:-10---8----8---8-h10-----------------------------------------------------| 
D:--------10---------------------------------------------------------------| 
A:-------------------------------------------------------------------------| 
E:-------------------------------------------------------------------------| 

e:--------------------------------------------------8---------------------| 
B:-----------------------------8-10/12-8-----8-9-11---11-9----------------| 
G:-10-10/12\10--h12-------8-10-----------10----------------10/12--10-8-10-| 
D:-------------------8-10-------------------------------------------------| 
A:------------------------------------------------------------------------| 
E:------------------------------------------------------------------------| 

e:------------------------------------------------------13b15(15)---r13---| 
B:-----------8-9-9/11-9-8----------------------------13---(listen to the--| 
G:-p8-----10--------------10-8-10-10/12-10/12~~---12------song for the ---| 
D:----10----------------------------------------------------timing)-------| 
A:------------------------------------------------------------------------| 
E:------------------------------------------------------------------------| 

e:-11-8-8--11-8--------| 
B:---------------------| 
G:--------------10p8---| 
D:-------------------8-| 
A:---------------------| 
E:---------------------| 

e:------------------------------------------------------------------------| 
B:--------------8-------8-------8---------------8-11----8-11---8-11-11--8-| 
G:------7-8--10------10------10------10--8-10-8-------8-------------------| 
D:-8/10-----------10------10------10--------------------------------------| 
A:------------------------------------------------------------------------| 
E:------------------------------------------------------------------------| 

e:---8-------8-------------8-----------------------------------------------| 
B:11---11b13-8--11-8-----8---11-11p8---8-------------------8---------------| 
G:-----------8-------10^-------------10--10/12-10-8----8-10--10p8h10-p8----| 
D:--------------------------------------------------10------------------10-| 
A:-------------------------------------------------------------------------| 
E:-------------------------------------------------------------------------| 

e:-8--------------------------------------------------------| 
B:-8--11-8--------------------------------------------------| 
G:-8-------10-8----8-10-8-10/12--8--------------------------| 
D:--------------10-----------------10-10-8h10-8-------------| 
A:-----------------------------------------------10-8--6-6--| 
E:----------------------------------------------------------| 

e:------------------------------------------------------------11--13/15-13-| 
B:-----------------------8--8--8-8-8-8-8-8-8-8-8----11--11/13--------------| 
G:------7-8---------7-8--------------------------10------------------------| 
D:-8/10----------10--------------------------------------------------------| 
A:-------------------------------------------------------------------------| 
E:-------------------------------------------------------------------------| 

e:10-----------------------------------------------------------------------| 
B:---12-9------------------------------------------------------------------| 
G:--------12-10---------------------------------------10----------10-10/12-| 
D:--------------13-12--10-9------------------10-12-13----13-12-13----------| 
A:--------------------------11-10-8--9-10-11-------------------------------| 
E:-------------------------------------------------------------------------| 

e:-------------------8--15--18p1518p1518p1518p15----18^-18^^-18^-18^-18^r-| 
B:-----------------8--------(keep repeating rapidly)----------------------| 
G:-10/12--(12)/14---------------------------------------------------------| 
D:------------------------------------------------------------------------| 
A:------------------------------------------------------------------------| 
E:------------------------------------------------------------------------| 

e:-15h18p15-----15-18-15\--13b15-(15)-(15)--13^--13b15r13p11--13b15r13p11-| 
B:-----------18-----------------------------------------------------------| 
G:------------------------------------------------------------------------| 
D:------------------------------------------------------------------------| 
A:------------------------------------------------------------------------| 
E:------------------------------------------------------------------------| 

e:-13p11\10----------11b13r12b13r11-| 
B:----------------------------------| 
G:----------10p8\7------------------| 
D:----------------------------------| 
A:----------------------------------| 
E:----------------------------------| 

e:------------------------------------------------------------------------| 
B:------------------------------------------------------------------------| 
G:-----------------------------10----10-----10----10----10-----12----12---| 
D:-1312-1312-13-12-13-12-13-12----13----1312--1312--1312--1312----13---13-| 
A:------------------------------------------------------------------------| 
E:------------------------------------------------------------------------| 

e:-------------------------------------------------------------| 
B:-------13-15-16--13------------------------------------------| 
G:-12-14--------------12-11h12p11h12--10-----------------------| 
D:---------------------------------------13-10-----------------| 
A:---------------------------------------------13-10--8--6-6---| 
E:-------------------------------------------------------------| 

e:-------------------------------------|-3--3-----------6-6-6-6-6-6-6-3-6-| 
B:-(3h4p3)-----------------------------|------4-4p3---3-------------------| 
G:--(keep repeating with speed for-----|------------5---------------------| 
D:--about 20 seconds play with some----|----------------------------------| 
A:---effect, volume etc.)--------------|----------------------------------| 
E:-------------------------------------|----------------------------------| 

e:6p3---3--3------------6-6-6--3-6-6p3-3--3--------------------------------| 
B:-----4--4--4-4p3---3------------------4--4--4-4p3---3--4p3--3------------| 
G:-----------------5--------------------------------5--------5--5-3--------| 
D:-------------------------------------------------------------------6-5-3-| 
A:-------------------------------------------------------------------------| 
E:-------------------------------------------------------------------------| 

e:----------------------------------3-4--6--6/8-8--10h11p10p8--10h11p10p8-| 
B:------------------------3-3h4--6----------------------------------------| 
G:--------------------3-5-------------------------------------------------| 
D:-------------3--5-6-----------------------------------------------------| 
A:-6-5-/3--5-6------------------------------------------------------------| 
E:------------------------------------------------------------------------| 

e:--10h11p10p8--10h11p10p8--11p8---11p8-11p8-11p8-11p8-11p8-11p8---13p10---| 
B:-------------------------------9-----9----9---------9----9----9-------11-| 
G:-------------------------------------------------------------------------| 
D:-------------------------------------------------------------------------| 
A:-------------------------------------------------------------------------| 
E:-------------------------------------------------------------------------| 

e:-13p10-13p10--13p10-13p10--13p10--10--13131313/15151515/161616/17171717--| 
B:------------11-----------11-----11----13131313/15151515/161616/17171717--| 
G:--------------------------------------10101010/12121212/131313/14141414--| 
D:-------------------------------------------------------------------------| 
A:-------------------------------------------------------------------------| 
E:-------------------------------------------------------------------------| 

e:181818/19191919/20202020/21212121\---| 
B:181818/19191919/20202020/21212121\---| 
G:151515/16161616/17171717/18181818\---| 
D:-------------------------------------| 
A:-------------------------------------| 
E:-------------------------------------| 

e:-15--15-15-15-15--15151515151515-----15----15--15-----------------------| 
B:-16---------------16161616161616---16----16------16----------------16---| 
G:-17------------------------------17----17----17-----17-15----15-17------| 
D:----------------------------------------------------------17------------| 
A:------------------------------------------------------------------------| 
E:------------------------------------------------------------------------| 

e:-----15----15--15--------------------15----15--15-----------------------| 
B:---16----16-------16--------16-----16----16-------16-----------------16-| 
G:-17----17----17------17--15---17-17----17----17------17-15----15-17-----| 
D:-----------------------17----------------------------------17-----------| 
A:------------------------------------------------------------------------| 
E:------------------------------------------------------------------------| 

e:-----15----15------------10/11--8h10-8----8-11-10-8----8h10-(10)h11p10p8-| 
B:---16----16--16------------------------8\------------11------------------| 
G:-17----17-------17-------------------------------------------------------| 
D:-------------------17\---------------------------------------------------| 
A:-------------------------------------------------------------------------| 
E:-------------------------------------------------------------------------| 

e:-10h11p10p8----8-11-10-8-11---------------------------------------------| 
B:------------8\------------------------------------------------11--9-8---| 
G:------------------------------10/12--(12)\10\8\7---------5--8-----------| 
D:-------------------------------------------------5---5-6----------------| 
A:------------------------------------------------------------------------| 
E:------------------------------------------------------------------------| 

e:--------------------------------------11-------------------11-15--16-15-| 
B:-9-8-------------------------------13----(11-11)--------13--------------| 
G:-----10-8-7------------------5-8-----------light--12-13-----------------| 
D:------------5-5-5-5-5-5--5-6--------------------------------------------| 
A:------------------------------------------------------------------------| 
E:------------------------------------------------------------------------| 

e:-18-16-16\15-13-16p15-13-16---------------------------------------------| 
B:----------------------------15/16-15-13-----13--------------------------| 
G:----------------------------------------15-----15-------10h11p10----10--| 
D:--------------------------------------------------15-13----------13-----| 
A:------------------------------------------------------------------------| 
E:------------------------------------------------------------------------| 

e:-------------------------------------------------------------------------| 
B:------8-------8-----8-----8-----8-----8-----8-----8-----8888-----99------| 
G:8/10----8------11/12-11/12-11/12-11/12-11/12-11/12-11/12----11/12--12/13-| 
D:----------10\------------------------------------------------------------| 
A:-------------------------------------------------------------------------| 
E:-------------------------------------------------------------------------| 

                                             F5       G5         G#5 
e:--------------------------------88-1010-11-13131313-1515151515-16161616-| 
B:-9999-----1010------101010-1111------------13131313-1515151515-16161616-| 
G:-----12/13----13/14------------------------10101010-1212121212-13131313-| 
D:------------------------------------------------------------------------| 
A:------------------------------------------------------------------------| 
E:------------------------------------------------------------------------| 

   A5 
e:-17171717\---11-11----8------------11-11----8-------11-11----8-------11-| 
B:-17171717\---11---11----11p8-------11---11----11p8--11---11----11p8--11-| 
G:-14141414\---8------8--------8-10--8------8---------8------8---------8--| 
D:------------------------------------------------------------------------| 
A:------------------------------------------------------------------------| 
E:------------------------------------------------------------------------| 

                                        I want you          the right way 
e:11-11-13--11-11----8-------------------------------------|-------------| 
B:11-11-13--11---11----11p8--------------------------------|-------------| 
G:8--8--10--8------8---------------------------------------|-------------| 
D:----------------------------10/12-10---------10-10/12-10-|-12/13-12-10-| 
A:---------------------------------------10-13-------------|-------------| 
E:---------------------------------------------------------|-------------| 

   said I want you 
e:------------------------------------------------------------------------| 
B:------------------------------------------------------------------------| 
G:------------------------------12----------------------------------------| 
D:-----10-12--13-12-13-12-13/15----13-------13----13-12-13-12----10-------| 
A:--13--------------------------------13/15-------------------13----10-11-| 
E:------------------------------------------------------------------------| 

          just like I have you   I want you   want you love me 
e:------|----------------------|-15---------|--18---15----------|-18-------| 
B:------|----------------------|-----16-----|-----------16------|----18b20-| 
G:------|--12---10-----12--12--|--------17--|---------------17--|----------| 
D:10-13-|-----------13---------|------------|-------------------|----------| 
A:------|----------------------|------------|-------------------|----------| 
E:------|----------------------|------------|-------------------|----------| 

         I said I want you      But I want you        to love me  too 
e:----------------------------------------------------15------------------| 
B:r18-16-------------------------15-16-15-16-15-16/18----16-------16------| 
G:-------------------------15-17----------------------------15/17---------| 
D:------------------------------------------------------------------------| 
A:------------------------------------------------------------------------| 
E:------------------------------------------------------------------------| 

   want you to love me the right way               just like I have you 
e:--------------------------------------------------15---13----13---15-15--| 
B:--16-15-16-15--------13--------------------13-16-----------16--------18--| 
G:----------------15------------------12-13--------------------------------| 
D:-------------------------------------------------------------------------| 
A:-------------------------------------------------------------------------| 
E:-------------------------------------------------------------------------| 

e:15------15---18^^-|---------------11-11-10--10-8-------------------------| 
B:18^-18^-18^-------|--8-------11-8-----------------8-------8p6-8\--/6-----|p4h 
G:------------------|-------10------------------------8--------------------| 
D:------------------|-----------------------------------10-----------------| 
A:------------------|------------------------------------------------------| 
E:------------------|------------------------------------------------------| 

e:----------------------------------8-----------------------8-10-10-------| 
B:6p4\3--h4p3h4p3---------8-8-9--11---11-9-8----8----8-9-11---------11-11-| 
G:-------keep repeating----------------------10---------------------------| 
D:------------------------------------------------------------------------| 
A:------------------------------------------------------------------------| 
E:------------------------------------------------------------------------| 

e:------------------------------------------------------------------------| 
B:9-9-8-8------------8----------------------------------------------------| 
G:--------10-10-8-10---8-7-8-10-8-7-h8p7h8p7h8p7\5---7-8-10-8-7-8p7-------| 
D:------------------------------------------------------------------10-10-| 
A:------------------------------------------------------------------------| 
E:------------------------------------------------------------------------| 

e:--------------------8-----------------------------11-8)-8-11-11-11p8--8-| 
B:-8----8----8-8-9-11---11-9-9p8----8---(8-8-8-8--8--------------------9--| 
G:---10--------------------------10--------(light)------------------------| 
D:------------------------------------------------------------------------| 
A:------------------------------------------------------------------------| 
E:------------------------------------------------------------------------| 

           D5 D#5            F5    G5 
e:---------10-11-10-11-10-11-13-13/15-13---10--11--8-10-11-13--10-11-10h11-| 
B:---------10-11-10-11-10-11-13-13/15-13---10--11-8------------------------| 
G:10p8-----7--8--7--8--7--8--10-10/12-10---7---8---------------------------| 
D:-----10------------------------------------------------------------------| 
A:-------------------------------------------------------------------------| 
E:-------------------------------------------------------------------------| 

e:p10p8--10--11------------------8-10-11-13--10-11-10h11p10p8---10--11---8-| 
B:-------10--11-13-------------8--------------------------------10--11-8---| 
G:-------7---8-----12\10-8--------------------------------------7---8------| 
D:-------------------------10----------------------------------------------| 
A:-------------------------------------------------------------------------| 
E:-------------------------------------------------------------------------| 

e:-10-11-13--10-11-10h11p10p8---10--11---8-10-11*-10-10-11-1111-10-11-1313--| 
B:------------------------------10--11-8--------*-10-10-11-1111-10-11-1313--| 
G:------------------------------7---8-----------*-7--7--8--8-8--7--8--1010--| 
D:-----------------------------------------------(repeat this part for------| 
A:--------------------------------------------about 12----------------------|  
E:--------------------------------------------increase your speed)----------| 
times and  
each time 

e:1313-151515151515--*--------------8--------------------------------------| 
B:1313-151515151515--*-----8--11-11---11--p8--11---------------------------| 
G:1010-121212121212--*---------------------------10----10------------------| 
D:--------------------------------------------------10---------------------| 
A:----------------------------------------------------------------10-10-13-| 
E:-----------------------------------------------------------6-11----------| 

e:-------------------------|-----------8-----------------------------------| 
B:-------------------------|--8--11-11---11--p8--11-----------------8-8-11-| 
G:-------------------------|------------------------10-----10-----8--------| 
D:-------------------------|----------------------------10------8----------| 
A:-10----------------------|-----------------------------------------------| 
E:----11-11/13--8-10/11-11-|-----------------------------------------------| 

e:-----------------------------------------------------------------------| 
B:-----------------------------------------------------------------------| 
G:-10/12--p10\8----8/10-h11p10h11p10\8-----8h10p8h10p8-----8-8-----------| 
D:--------------10---------------------(10)------------(10)--------------| 
A:-----------------------------------------------------------------------| 
E:-----------------------------------------------------------------------|  
	  

Solicitar el vídeo de "Europa (Live)" - Descargar Europa (Live) mp3

No existe una video leccione para esta canción

solicitar
Aumentar uno tonoAumentar uno tono
Aumentar uno semi-tonoAumentar uno semi-tono
Disminuir uno semi-tonoDisminuir uno semi-tono
Disminuir uno tonoDisminuir uno semi-tono
140

Envie sus comentários.

0 comentários

 
LosAcordes
Buscar
auto avanzar rasgueos aumentar disminuir cambiar color esconder acordes gráficos
losacordes exhibir acordes losacordes youTube video losacordes ocultar tabs losacordes cambiar notación losacordes ir hacia arriba losacordes