Declan McKenna

Início > Declan McK... > acordes

Brew Tablatura

Declan McKenna

Dificultad:Ningún gradoNingún grado

por adalgomes

tuner correct add songbook print version text version salvar en e-mail
acordesukuleletablaturabajobateríaarmónicaflautacavacopiano Guitar Pro
acordes

Brew

	  Intro - Same as Chorus I think.  Its hard to hear behind the 8-bit synth 

e|-------------------------------------------------------------| 
B|------4---4-2-0--------0------0-----0-----0-----0-----0------|  
G|-------------------3-------1-----1-----1-----1-----0-----0---|  
D|-------------------------------------------------------------|   
A|---2-----2-----2---------------------------------------------|  
E|-------------------3-------0-----0-----0-----0-----0-----0---| 

e|-------------------------------------------------------------| 
B|------4---4-2-0--------0------0-----0-----0-----0-----0------|  
G|-------------------3-------1-----1-----1-----1-----0-----0---|  
D|-------------------------------------------------------------|   
A|---2-----2-----2---------------------------------------------|  
E|-------------------3-------0-----0-----0-----0-----0-----0---| 

e|-------------------------------------------------------------| 
B|------4---4-2-0--------0------0-----0-----0-----0-----0------|  
G|-------------------3-------1-----1-----1-----1-----0-----0---|  
D|-------------------------------------------------------------|   
A|---2-----2-----2---------------------------------------------|  
E|-------------------3-------0-----0-----0-----0-----0-----0---| 

e|-------------------------------------------------------------| 
B|------4---4-2-0--------0------0-----0-----0-----0-----0------|  
G|-------------------3-------1-----1-----1-----1-----0-----0---|  
D|-------------------------------------------------------------|   
A|---2-----2-----2---------------------------------------------|  
E|-------------------3-------0-----0-----0-----0-----0-----0---| 


verse 1 

e|---------------------------------------------------------------------------| 
B|---------------------------------------------------------------------------| 
G|--1---1---1-----1-----1---1---8-\-4---4---4-----4-----4---4--/6-/-13---13--| 
D|---------------------------------------------------------------------------| 
A|---------------------------------------------------------------------------| 
E|--0---0--0--0---0---0---0---0-7-\-4---4--4--4---3---3---3---3/5-/-12---12--| 

e|-------------------------------| 
B|-------------------------------| 
G|---13-----13----13---13---13-\-| 
D|-------------------------------| 
A|-------------------------------| 
E|-12--12---12--12---12---12---\-| 

e|---------------------------------------------------------------------------| 
B|---------------------------------------------------------------------------| 
G|--1---1---1-----1-----1---1--/8-\-4---4---4-----4-----4---4--/6-/-13---13--| 
D|---------------------------------------------------------------------------| 
A|---------------------------------------------------------------------------| 
E|--0---0--0--0---0---0---0---0-7-\-4---4--4--4---3---3---3---3/5-/-12---12--| 

e|----------------------------------------------------------------------| 
B|----------------------------------------------------------------------| 
G|---13-----13----13---13---13---13---13----13-----13----13---13---13---| 
D|----------------------------------------------------------------------| 
A|----------------------------------------------------------------------| 
E|-12--12---12--12---12---12-----12---12--12--12---12--12---12---12-----| 


Chorus - Bass notes are a little harder to hear, but I'm pretty sure they're in there 

e|-------------------------------------------------------------| 
B|------4---4-2-0--------0------0-----0-----0-----0-----0------|  
G|-------------------3-------1-----1-----1-----1-----0-----0---|  
D|-------------------------------------------------------------|   
A|---2-----2-----2---------------------------------------------|  
E|-------------------3-------0-----0-----0-----0-----0-----0---| 

e|-------------------------------------------------------------| 
B|------4---4-2-0--------0------0-----0-----0-----0-----0------|  
G|-------------------3-------1-----1-----1-----1-----0-----0---|  
D|-------------------------------------------------------------|   
A|---2-----2-----2---------------------------------------------|  
E|-------------------3-------0-----0-----0-----0-----0-----0---| 

e|-------------------------------------------------------------| 
B|------4---4-2-0--------0------0-----0-----0-----0-----0------|  
G|-------------------3-------1-----1-----1-----1-----0-----0---|  
D|-------------------------------------------------------------|   
A|---2-----2-----2---------------------------------------------|  
E|-------------------3-------0-----0-----0-----0-----0-----0---| 



verse 2 - The differences in this verse might actually be mistakes in the recording, haha 

e|---------------------------------------------------------------------------| 
B|------------------------------0---------------------------------------------| 
G|--1---1---1-----1-----1---1-----------4---4-----4-----4---4--/6-/-13---13--| 
D|----------------------------------4----------------------------------------| 
A|---------------------------------------------------------------------------| 
E|--0---0--0--0---0---0---0---0-----4---4--4--4---3---3---3---3/5-/-12---12--| 

e|-------------------------------| 
B|-------------------------------| 
G|---13-----13----13---13---13---| 
D|-------------------------------| 
A|-------------------------------| 
E|-12--12---12--12---12---12-----| 

e|---------------------------------------------------------------------------| 
B|---------------------------------------------------------------------------| 
G|0h1---1---1-----1-----1---1--/8-\-4---4---4-----4-----4---4--/6-/-13---13--| 
D|---------------------------------------------------------------------------| 
A|---------------------------------------------------------------------------| 
E|--0---0--0--0---0---0---0---0/7-\-4---4--4--4---3---3---3---3/5-/-12---12--| 

e|---------------------------------------------------------------------------| 
B|---------------------------------------------------------------------------| 
G|---13-----13----13---13---13--6-/-13----13----13---13---13-----------------| 
D|---------------------------------------------------------------------------| 
A|---------------------------------------------------------------------------| 
E|-12--12---12--12---12---12----5-/-12--12---12----12---12-------------------| 

e|---------------------------------------------------------------------------| 
B|---------------------------------------------------------------------------| 
G|-1---1---1------1----1----1---3--1----1---1---1-/-5-6--6--4--6-------------| 
D|---------------------------------------------------------------------------| 
A|---------------------------------------------------------------------------| 
E|-0---0--0---0---0---0---0---0----0--0---0---0--0-----0---0--0--0-----------| 

Chorus 

e|-------------------------------------------------------------| 
B|------4---4-2-0--------0------0-----0-----0-----0-----0------|  
G|-------------------3-------1-----1-----1-----1-----0-----0---|  
D|-------------------------------------------------------------|   
A|---2-----2-----2---------------------------------------------|  
E|-------------------3-------0-----0-----0-----0-----0-----0---| 

e|-------------------------------------------------------------| 
B|------4---4-2-0--------0------0-----0-----0-----0-----0------|  
G|-------------------3-------1-----1-----1-----1-----0-----0---|  
D|-------------------------------------------------------------|   
A|---2-----2-----2---------------------------------------------|  
E|-------------------3-------0-----0-----0-----0-----0-----0---| 

e|-------------------------------------------------------------| 
B|------4---4-2-0--------0------0-----0-----0-----0-----0------|  
G|-------------------3-------1-----1-----1-----1-----0-----0---|  
D|-------------------------------------------------------------|   
A|---2-----2-----2---------------------------------------------|  
E|-------------------3-------0-----0-----0-----0-----0-----0---| 

e|-------------------------------------------------------------------| 
B|------4---4-2-0--------0------0-----0-----0-----0-----0------0-----|  
G|-------------------3-------1-----1-----1-----1-----0-----0-------0-|  
D|-------------------------------------------------------------------|   
A|---2-----2-----2---------------------------------------------------|  
E|-------------------3-------0-----0-----0-----0-----0-----0-------0-| 


************************************ 

| h   Hammer-on 
| /   Slide up 
| \   Slide down 

************************************ 
	  

No existe una video leccione para esta canción

request
LosAcordes
Buscar
auto avanzar rasgueos aumentar disminuir cambiar color esconder acordes gráficos
losacordes exhibir acordes losacordes youTube video losacordes ocultar tabs losacordes ir hacia arriba losacordes