A B C D E F G H I J K L M N O P Q R S T U V X Y Z 0-9
Guitar Hero

Início > Guitar Her... > acordes

Guitar Hero

Impulse

Dificultad:ExpertoExperto

por marcnagel

tuner corregir añadir para songbook version para impresion version de texto version rtf e-mail
acordestablaturabajobateríaarmónicaflautacavacopiano Guitar Pro
acordes

Impulse

	  Dropped d 

-----------------------------------------------------------------------| 
-----------------------------------------------------------------------| 
-------9----11-------9----11-------9----11-----------------------------| 
-11-11---11----11-11---11----11-11---11----11--------------------------| 
-----------------------------------------------------------------------| 
-----------------------------------------------------------------------| 

-----------------------------------------------------------------------| 
-----------------------------------------------------------------------| 
-------11----11-------11-------13----13-------13-----------------------| 
-12-12----12----12-12----12-12----12----12-12--------------------------| 
-----------------------------------------------------------------------| 
-----------------------------------------------------------------------| 

-----------------------------------------------------------------------| 
---------------------------12-12---12-----12----14-14----14-------14---| 
----14-14----14-------14-9-------9----9-9----11-------11----11-11------| 
-11-------11----11-11--------------------------------------------------| 
-----------------------------------------------------------------------| 
-----------------------------------------------------------------------| 

-------14----12--------------------------------------------------------| 
----10----10-----------------------------------------------------------| 
-----------------------------------------------------------------------| 
-12--------------11---------------------------------------------------| 
-----------------------------------------------------------------------| 
-----------------------------------------------------------------------| 

-----------------------------------------------------------------------| 
-----------------------------------------------------------------------| 
-------------------------------------4-2------5------------------------| 
-4------------2--------------2-4-2-4-----2-4--5--1---------------------| 
-4------2-3-4----4-3-2-0-2-4------------------3--1---------------------| 
-4--2-4------------------------------------------1---------------------| 

-----------------------------------------------------------------------| 
----------------------------------------------------5-----8------------| 
-------------------------------------4-/4-3-------3-----6--------------| 
-4------------2--------------2-4-2-4--------4-2-2-----5----------------| 
-4------2-3-4----4-3-2-0-2-4-------------------------------------------| 
-4--2-4----------------------------------------------------------------| 

-----------------------------------------------------------------------| 
-----------------------------------------------------------------------| 
-----------------------------------------------------------------------| 
-11--11-11--11--11--11--11--11-11--7--7--7--7--11--11--12--12----------| 
-9---9--9---9---9---9---9---9--9---7--7--7--7--9---9---10--10----------| 
-0---0--0---0---0---0---0---0--0---4--4--4--4--7---7---7---7-----------| 

-----------------------------------------------------------------------| 
-----------------------------------------------------------------------| 
------14----13----11-----9-11------------------------------------------| 
-7/11----11----11-----------------14---11---9--------------------------| 
----------------------12-------12----9----7----------------------------| 
-----------------------------------------------------------------------| 

-----------------------------------------------------------------------| 
-------7----------7----------------------------------------------------| 
-----6---------6----6------------9-------------------------------------| 
-7-9------7-9---------9-7--6-7-9----9-7-6/9-11-12----11h12p11-9-7------| 
-----------------------------------------------------------------------| 
-----------------------------------------------------------------------| 

-----------------------------------------------------------------------| 
-------7----------7----------------------------------------------------| 
-----6---------6-----6-------------------------------------------------| 
-7-9------7-9----------9-7--9-6--7-4-----------------------------------| 
-----------------------------------------------------------------------| 
-----------------------------------------------------------------------| 

------------------------------------9---10---12------------------------| 
--------------------------10---12--------------------------------------| 
-----------7-6---9---12-9----9----9---9----9---------------------------| 
-5-4-2-4-5-----7---7-----------------------------9---------------------| 
-------------------------------------------------9---------------------| 
-------------------------------------------------9---------------------| 

-----------------------------------------------------------------------| 
-----------------------------------------------------------------------| 
-----------------------------------------------------------------------| 
-9-9-9-9-9--9-9--9-9-9--9-9-9-9--9-9--9--9--9-9-9----------------------| 
-9-9-9-9-9--9-9--9-9-9--9-9-9-9--9-9--9--9--9-9-9----------------------| 
-9-9-9-9-9--9-9--9-9-9--9-9-9-9--9-9--9--9--9-9-9----------------------| 

-----------------------------------------------------------------------| 
-----------------------------------------------------------------------| 
-----------------------------------------------------------------------| 
-9-9-9-9-9------9-9-9------9--9--9--9-9------9-9-9---------------------| 
-9-9-9-9-9-8-9--9-9-9-8-9--9--9--9--9-9-8-9--9-9-9-8-9-----------------| 
-9-9-9-9-9------9-9-9------9--9--9--9-9------9-9-9-----7--2------------| 

-----5-4---5-9-12---------------------------7-9------------------------| 
---------5--------12-----12-14-------------------7-10------------------| 
----------------------14-------14--------------------------------------| 
---7--------------------------------------7----------------------------| 
-5--------------------------------125--5------------------------------| 
-----------------------------------------------------------------------| 

-7--9----12--10-|-7--9-------------------------------------------------| 
-9--10---9------|-9--10---9--10----------------------------------------| 
----------------|---------7--------------------------------------------| 
----------------|------------------------------------------------------| 
----------------|------------------------------------------------------| 
----------------|------------------------------------------------------| 

-----------------------------------------------------------------------| 
-----------5---------------------------------------10-9----------------| 
-------2---4-------11---9------------6---9-7-6-7-9---------------------| 
-4--2--2---2-----7----7--------4--2--6---------------------------------| 
-4--2--0------5-----------5-4--4--2--4------------------5-4------------| 
-4--2--------------------------4--2------------------------------------| 

-----------------------------------------------------------------------| 
-----------------------------------------------------------------------| 
-6/11--96-------------------------------------------------------------| 
-----------------------------------------------------------------------| 
-----------------------------------------------------------------------| 
-----------------------------------------------------------------------| 

-----------------------------------------------------------------------| 
-----------------------------------------------------------------------| 
-9~--61~-----------------9~--61~----3~~--5~--------------------------| 
------------------------------------2----------------------------------| 
---------71~--2/4~--6~7~----------------------------------------------| 
-----------------------------------------------------------------------| 

-------18----------18----------18----------18--------------------------| 
----17----17----17----17----17----17----17-----------------------------| 
-16----------16----------16----------16--------------------------------| 
-----------------------------------------------------------------------| 
-----------------------------------------------------------------------| 
-----------------------------------------------------------------------| 

-6-6-6-----------------------6-6-6-6-6-6--6--6--6--6-6-6---------------| 
-5-5-5--7--7--7-7--7-7--7-7--5-5-6-5-5-5--5--5--5--5-5-5---------------| 
-3-3-3--10-8--8-7--7-5--5-3--3-3-3-3-3-3--3--3--3--3-3-3---------------| 
-0-0-0-----------------------0-0-0-0-0-0--0--0--0--0-0-0---------------| 
-----------------------------------------------------------------------| 
-----------------------------------------------------------------------| 

-----------------------------------------------------------------------| 
-------------/10--11-13-14-5-------------------------------------------| 
-----------------------------------------------------------------------| 
---------4-5-----------------------------------------------------------| 
-----3-4---------------------------------------------------------------| 
-3-4-------------------------------------------------------------------| 

-----------------------------------------------------------------------| 
-----------------------------------------------------------------------| 
- CRAZY  PART ---------------------------------------------------------| 
-----------------------------------------------------------------------| 
-----------------------------------------------------------------------| 
-----------------------------------------------------------------------| 

-----------------------------------------------------------------------| 
-----------------------------------------------------------------------| 
---------------------7-6-----7-5-4-------------------------------------| 
-------9-------9---------9-8-------------------------------------------| 
-----8-------8---------------------------------------------------------| 
-8-9------8-9-----8----------------------------------------------------| 

-----------------------------------------------13--12~/----------------| 
-/9-10-12------10--12-13--------9-----12--9-10-------------------------| 
---------/9--9-----------7--/6----/9----------------------------------| 
-----------------------------------------------------------------------| 
-----------------------------------------------------------------------| 
-----------------------------------------------------------------------| 

-/14-14--12-10-9h10p9----9------------10h12-10----/9-5---/5-2-----------| 
----------------------12-----------------------10------7------3-7-------| 
----------------------------------6-7-----------------------------7-6-4-| 
------------------------------4-7---------------------------------------| 
----------------------------5-------------------------------------------| 
------------------------------------------------------------------------| 

-----------------------------------------------------------------------| 
-9-----7-----5----------5-7--5-----------------------------------------| 
----------------4--6--7--------7-6h7p6-4-6--4--------------------------| 
---9-7---7-6-----------------------------------------------------------| 
-----------------------------------------------------------------------| 
-----------------------------------------------------------------------| 

---10-----12------14-------16-------17--19h21p19h21p19h21p19h21p19h21~-| 
-----------------------------------------------------------------------| 
-7----7-9----9-11----11-13----13-14------------------------------------| 
-----------------------------------------------------------------------| 
-----------------------------------------------------------------------| 
-----------------------------------------------------------------------| 

-----------------------------------------------------------------------| 
-----------------------------------------------------------------------| 
-------------------------------------4-2------5------------------------| 
-4------------2--------------2-4-2-4-----2-4--5--1---------------------| 
-4------2-3-4----4-3-2-0-2-4------------------3--1---------------------| 
-4--2-4------------------------------------------1---------------------| 

-----------------------------------------------------------------------| 
----------------------------------------------------5-----8------------| 
-------------------------------------4-/4-3-------3-----6--------------| 
-4------------2--------------2-4-2-4--------4-2-2-----5----------------| 
-4------2-3-4----4-3-2-0-2-4-------------------------------------------| 
-4--2-4----------------------------------------------------------------| 

-----------------------------------------------------------------------| 
-----------------------------------------------------------------------| 
-------------------------------------4-2------5------------------------| 
-4------------2--------------2-4-2-4-----2-4--5--1---------------------| 
-4------2-3-4----4-3-2-0-2-4------------------3--1---------------------| 
-4--2-4------------------------------------------1---------------------| 

-----------------------------------------------------------------------| 
-----------------------------------------------------------------------| 
-------------------------------------4-/4-3----------------------------| 
-4------------2--------------2-4-2-4--------4-2------------------------| 
-4------2-3-4----4-3-2-0-2-4-------------------------------------------| 
-4--2-4----------------------------------------------------------------| 

-6-6-----6---6-6---6-6---6-6-6-----6-----------------------------------| 
-5-5-----5---5-5---5-5---5-5-5-----5-----------------------------------| 
-3-3-----3---3-3---3-3---3-3-3-----3-----------------------------------| 
-0-0-----0---0-0---0-0---0-0-0-----0-----------------------------------| 
-----------------------------------------------------------------------| 
-----0-0---0-----0-----0-------0-0-------------------------------------| 
	  

Solicitar el vídeo de "Impulse" - Descargar Impulse mp3

No existe una video leccione para esta canción

solicitar
140

Envie sus comentários.

0 comentários

 
LosAcordes
Buscar
auto avanzar rasgueos aumentar disminuir cambiar color esconder acordes gráficos
losacordes exhibir acordes losacordes youTube video losacordes ocultar tabs losacordes cambiar notación losacordes ir hacia arriba losacordes