A B C D E F G H I J K L M N O P Q R S T U V X Y Z 0-9
Guns N' Roses

Início > Guns N' Ro... > acordes

Guns N' Roses

November Rain

Dificultad:Ningún gradoNingún grado

por iagovillareal

tuner corregir añadir para songbook version para impresion version de texto version rtf e-mail
acordestablaturabaixobateriaarmónicaflautacavacopiano Guitar Pro
acordes

November Rain

Áño: 1991 - Álbum: Greatest Hits

	  solo 1  

--------------8--------------------------8----------------------  
8b10--10r8b10---10r8p6-8b10r8b10-10r8b10---10r8-----------------  
----------------------------------------------------------------  
----------------------------------------------------------------  
----------------------------------------------------------------  
----------------------------------------------------------------  

------8---------------------------------------------------------  
5b6r5---6p5-5b6r5----------8------------------------------------  
-------------------7p5-7/9---7/5--------------------------------  
----------------------------------------------------------------  
----------------------------------------------------------------  
----------------------------------------------------------------  

--------------8---------------------------8-8b10r8-10b12r10b12--  
8b10--10r8b10---10r8p6-8b10r8b10-10r8b10------------------------  
----------------------------------------------------------------  
----------------------------------------------------------------  
----------------------------------------------------------------  
----------------------------------------------------------------  


8h10p8----8-------13p12----13p12----13b15r13-10-12-13-----------  
-------10---10/13-------13-------13-----------------------------  
----------------------------------------------------------------  
----------------------------------------------------------------  
----------------------------------------------------------------  
----------------------------------------------------------------  

12h13p12p10--13p12-13b15-13p12-13-12~-19b20---------------------  
----------------------------------------------------------------  
----------------------------------------------------------------  
----------------------------------------------------------------  
----------------------------------------------------------------  
----------------------------------------------------------------  

19-19-19/17-17-17/15-15-15/13-13-/12-12h13p12----13-------------  
----------------------------------------------15----------------  
----------------------------------------------------------------  
----------------------------------------------------------------  
----------------------------------------------------------------  
----------------------------------------------------------------  

12-13--12h13p12-------12----------------------------------------  
----------------15-13----13/15-17p15p13-15p12-13p12-12h13p12----  
----------------------------------------------------------------  
----------------------------------------------------------------  
----------------------------------------------------------------  
----------------------------------------------------------------  

----------------------------------------------------------------  
------12----10--------------------------------------------------  
14p12----12----10h12p10h12p10/9---------------------------------  
----------------------------------------------------------------  
----------------------------------------------------------------  
----------------------------------------------------------------  

--------------------------------------------------15------------  
------------/13-------------/13-------------15b17----17r15-13b15  
9h10p9----9-----9h10p9----9-----9h10p9---9----------------------  
-------12--------------12-------------12------------------------  
----------------------------------------------------------------  
----------------------------------------------------------------  

entre o primeiro e o segundo solo 

----------------------------------------------------------------  
6-5----------------6b8--6-5------------------------6-5----------  
----5------5h7--------------5-----5/7------5p7h5-------5--------  
------5p7------5--------------5p7------5p7-------7-------5p7----  
----------------------------------------------------------------  
----------------------------------------------------------------  

solo 2  
----------------------------------------------------------------  
---------------12-13-15-----------------------------------------  
-/7-9-10/12/14--------------------------------------------------  
----------------------------------------------------------------  
----------------------------------------------------------------  
----------------------------------------------------------------  

-------------20--------------20----------19b20------------------  
17b18--20b22----22r20b22-b22----17b18r17------------------------  
----------------------------------------------------------------  
----------------------------------------------------------------  
----------------------------------------------------------------  
----------------------------------------------------------------  

-------------------------17-------------------------------------  
17b18r17b18-----17-18-20----18-20-17-18-20----------------------  
-------------19-------------------------------------------------  
----------------------------------------------------------------  
----------------------------------------------------------------  
----------------------------------------------------------------  

----------------------------------15-------------15-------------  
17b18r17--15b16r15p12-15p12----13----13-13----13----13-13----13-  
----------------------------14-------------14-------------14----  
----------------------------------------------------------------  
----------------------------------------------------------------  
----------------------------------------------------------------  


-15b17r15--13h15p13\12-12h13p12----12-------15------------------  
--------------------------------15----15b17----b17r15-13b15-----  
----------------------------------------------------------------  
----------------------------------------------------------------  
----------------------------------------------------------------  
----------------------------------------------------------------  

solo 3 (final) 
  
Parte 1  

19b20-19-20-20b22-20-19-20-15----15-16--15h16p15p13h15----------  
------------------------------16--------------------------------  
----------------------------------------------------------------  
----------------------------------------------------------------  
----------------------------------------------------------------  
----------------------------------------------------------------  

13-15-16-15-16p15p13----------13h15p13----13--------------------  
---------------------16-13-16----------16----15-16-18-16-15-16--  
----------------------------------------------------------------  
----------------------------------------------------------------  
----------------------------------------------------------------  
----------------------------------------------------------------  


----------------------------------------------------------------  
15b16r15~----15-16-18-15-16-18-15-------------------------------  
----------17----------------------17----------------------------  
----------------------------------------------------------------  
----------------------------------------------------------------  
----------------------------------------------------------------  

Parte 2  

19b20-19-20-20b22-20-19-20-15----15-16--15h16p15p13h15----------  
------------------------------16--------------------------------  
----------------------------------------------------------------  
----------------------------------------------------------------  
----------------------------------------------------------------  
----------------------------------------------------------------  


---------13h15h16p15p13h15p13----13-----------------------------  
13h15h16----------------------15----16p15-16p15p13h15p13--------  
----------------------------------------------------------------  
----------------------------------------------------------------  
----------------------------------------------------------------  
----------------------------------------------------------------  

----------------------------------------------------------------  
---13-----------------------------------------------------------  
15----15p13h15p13/12h13p12----12--------------------------------  
---------------------------15----15p13h15p13p12h13p12h13h15-----  
----------------------------------------------------------------  
----------------------------------------------------------------  

----------------------------------------------------------------  
----------------------------------------------------------------  
--12h13h15p13p12h13p12----12------------------------------------  
-----------------------15----15p13h15p13p12h13p12----12---------  
--------------------------------------------------15------------  
----------------------------------------------------------------  

parte 3  

19b20-19-20-20b22-20-19-----------------------------------------  
-------------------------15b16-15----15b16-15----18-18b20r18----  
----------------------------------17----------17----------------  
----------------------------------------------------------------  
----------------------------------------------------------------  
----------------------------------------------------------------  


-----------20--20-15-20-19-20-15-18-16-18-15h16p15----15--------  
-16----16------------------------------------------18----16-18--  
----17----------------------------------------------------------  
----------------------------------------------------------------  
----------------------------------------------------------------  
----------------------------------------------------------------  

15----15----15--------------------------------------------------  
---16----16----16-----------------------------------------------  
----------------------------------------------------------------  
----------------------------------------------------------------  
----------------------------------------------------------------  
----------------------------------------------------------------  

parte 4 
  
19b20-19-20-20b22-20-19-20-15----15-16--15h16p15----15----------  
------------------------------15-----------------18-------------  
----------------------------------------------------------------  
----------------------------------------------------------------  
----------------------------------------------------------------  
----------------------------------------------------------------  

---15-18b20-18b20--15----15-------------------------------------  
18--------------------16----16----------------------------------  
-------------------------------17--15-17-17-15------------------  
-----------------------------------------------17-16-15---------  
----------------------------------------------------------------  
----------------------------------------------------------------  

----------------------------------------------------------------  
----------------------------------------------------------------  
----------------------------------------------------------------  
13-15-13-15-13--------------------------------------------------  
---------------15-----------------------------------------------  
---------------------------------------------------------------- 
  
Parte 5  

19b20-19-20-20b22-20-19-20-15----15-16--15h16p15----15-----15---  
------------------------------16-----------------18-----18------  
----------------------------------------------------------------  
----------------------------------------------------------------  
----------------------------------------------------------------  
----------------------------------------------------------------  


15h16h18--15h16h18--15h16h18p16p15----15----15h16p15----15------  
-----------------------------------18----18----------18---------  
----------------------------------------------------------------  
----------------------------------------------------------------  
----------------------------------------------------------------  
----------------------------------------------------------------  

-------------------------15b16r15-------------------------------  
18b20-18-16----16-18-16-----------15b16r15----------------------  
------------17--------------------------------------------------  
----------------------------------------------------------------  
----------------------------------------------------------------  
---------------------------------------------------------------- 
  
parte 6 
  
19b20-19-20-20b22-20-19-20-15----15-16--------------------------  
------------------------------16--------------------------------  
----------------------------------------------------------------  
----------------------------------------------------------------  
----------------------------------------------------------------  
----------------------------------------------------------------  

-15-------------------------------------------------------------  
----18-16-18b20r18-18--16-15b16r15------------------------------  
----------------------------------------------------------------  
----------------------------------------------------------------  
----------------------------------------------------------------  
----------------------------------------------------------------
	  

Solicitar el vídeo de "November Rain" - Descargar November Rain mp3

No existe una video leccione para esta canción

solicitar
140

Envie sus comentários.

1 comentários

MRKZMRKZ
hace 1692 años atrás
Video Aula November Rain !! PF
 
LosAcordes
Buscar
auto avanzar rasgueos aumentar disminuir cambiar color esconder acordes gráficos
losacordes exhibir acordes losacordes youTube video losacordes ocultar tabs losacordes cambiar notación losacordes ir hacia arriba losacordes