A B C D E F G H I J K L M N O P Q R S T U V X Y Z 0-9
Guns N' Roses

Início > Guns N' Ro... > acordes

Guns N' Roses

November Rain

Dificultad:PrincipiantePrincipiante

por _slash_rose_

tuner corregir añadir para songbook version para impresion version de texto version rtf e-mail
acordestablaturabaixobateriaarmónicaflautacavacopiano Guitar Pro
acordes

November Rain

Áño: 1991 - Álbum: Greatest Hits

	  End Solo: 
 
FILL I: 
 
 --20---19~---20b---20-19-20-15----15-16~--15h16p15----15---- 
 -------------------------------16------------------18------- 
 ------------------------------------------------------------ 
 ------------------------------------------------------------ 
 ------------------------------------------------------------ 
 ------------------------------------------------------------ 
 
 
play Fill I, then: 
 
 
 ----15-16-15-16p15------------------15--------------------- 
 -18----------------18-16-----16-18----18-16-18-15-16-18-16- 
 -------------------------17-------------------------------- 
 ----------------------------------------------------------- 
 ----------------------------------------------------------- 
 ----------------------------------------------------------- 
 
 ---------------------------------------------------------- 
 -15-16-15b-r-b-r-----15-16-18-15-16-18--15---------------- 
 ------------------17------------------------17~~~--------- 
 ---------------------------------------------------------- 
 ---------------------------------------------------------- 
 ---------------------------------------------------------- 
 
FILL I again, then: 
 
 ----------15-16-15h16p15-------15-------15-------------------------- 
 -15-16-18----------------18-16----16-18----18p16-18--16----15-16-18- 
 --------------------------------------------------------17---------- 
 -------------------------------------------------------------------- 
 -------------------------------------------------------------------- 
 -------------------------------------------------------------------- 
 
 ------------------------------------------------------------ 
 -15----16-15------------------------------------------------ 
 ----17-------17-15-17--15p13h15p13h15p13-------------------- 
 -----------------------------------------12~~~-------------- 
 ------------------------------------------------------------ 
 ------------------------------------------------------------ 
 
 -20-------19~---20b---20-19---------------------------------- 
 ------------------------------15b----15----15b----15----18b-- 
 ----------------------------------------17-----------17------ 
 ------------------------------------------------------------- 
 ------------------------------------------------------------- 
 ------------------------------------------------------------- 
 
 ----------20~~-----20-15-20-19-20-15-18-16-18-15-16p15--15-----15--15--15--- 
 -16---16----------------------------------------------18--16-18--16--16--16- 
 ---17----------------------------------------------------------------------- 
 ---------------------------------------------------------------------------- 
 ---------------------------------------------------------------------------- 
 ---------------------------------------------------------------------------- 
 
FILL I then: 
 
 ----15-18b-r-b------15----15----------------------------------------------- 
 -18--------------------16----16-------------------------------------------- 
 -------------------------------17-15-17--17-15----------------------------- 
 -----------------------------------------------17-16-15-15-15-13--15-13---- 
 ------------------------------------------------------------------------15- 
 --------------------------------------------------------------------------- 
 
FILL I again... 
 
 ----15-15h16h18-15h16h18-15h16h18p16p15----16----15h16p15----15- 
 -18-------------------------------------18----18----------18---- 
 ---------------------------------------------------------------- 
 ---------------------------------------------------------------- 
 ---------------------------------------------------------------- 
 ---------------------------------------------------------------- 
 
 ----------------------------15b---r-------------- 
 -18b-r--16---18---16-18--16-------------15b---r-- 
 -----------17------------------------------------ 
 ------------------------------------------------- 
 ------------------------------------------------- 
 ------------------------------------------------- 
 
 -20-----19~----20b----20-19---20-15----15-16~---15--------------------------- 
 ------------------------------------16-------------18-16--18b----r--15br----b 
 ----------------------------------------------------------------------------- 
 ----------------------------------------------------------------------------- 
 ----------------------------------------------------------------------------- 
 --------------------------------------------------------------------------- 

	  

Solicitar el vídeo de "November Rain" - Descargar November Rain mp3

No existe una video leccione para esta canción

solicitar
140

Envie sus comentários.

1 comentários

MRKZMRKZ
hace 1077 años atrás
Video Aula November Rain !! PF
 
LosAcordes
Buscar
auto avanzar rasgueos aumentar disminuir cambiar color esconder acordes gráficos
losacordes exhibir acordes losacordes youTube video losacordes ocultar tabs losacordes cambiar notación losacordes ir hacia arriba losacordes