A B C D E F G H I J K L M N O P Q R S T U V X Y Z 0-9
Guns N' Roses

Início > Guns N' Ro... > acordes

Guns N' Roses

Welcome to The Jungle

Dificultad:PrincipiantePrincipiante

por _slash_rose_

tuner corregir añadir para songbook version para impresion version de texto version rtf e-mail
acordestablaturabaixobateriaarmónicaflautacavacopiano Guitar Pro
acordes

Welcome to The Jungle

Áño: 1987 - Álbum: Greatest Hits

(Guns N' Roses)

	     


Introdução ( 1ªparte )   



eb|--------------------------------------------------------------|   
Bb|--------------------------------------------------------------|   
Gb|---------4--4--4---------4--4--4--4--4--4---------------------|   
Db|--------------------------------------------------------------|   
Ab|--------------------------------------------------------------|   
Eb|--------------------------------------------------------------|   



eb|--------------------------------------------------------------|   
Bb|---0-----0----0----0-----0---0---0-----0-----0-----0-----0---0|   
Gb|-4---4-2---2-------------------4---4-2---2--------------------|   
Db|-------------4-4-2---2-0-------------------4---4-2---2-0------|   
Ab|---------------------------2-------------------------------2--|   
Eb|--------------------------------------------------------------|   



eb|--------------------------------------------------------------|   
Bb|---0-----0----0----0-----0---0---0-----0-----0-----0-----0---0|   
Gb|-4---4-2---2-------------------4---4-2---2--------------------|   
Db|-------------4-4-2---2-0-------------------4---4-2---2-0------|   
Ab|---------------------------2-------------------------------2--|   
Eb|--------------------------------------------------------------|   



solo da introdução   


eb|-----------------------------------7---2---0------------------|   
Bb|-----------------------------------7---5---0---3--------------|   
Gb|-------7--9--9b10r9--7\------------4---5---1---2--------------|   
Db|---7/9-------------------7/9--9\2--------------0---2----------|   
Ab|---------------------------------------------------0----------|   
Eb|--------------------------------------------------------------|   



eb|----------------------------5---------------------------------|   
Bb|---------------------3--5b7---7r5--3--------------------------|   
Gb|---------------2--4-------------------4\----------------------|   
Db|---------2--4-------------------------------------------------|   
Ab|---2--4-------------------------------------------------------|   
Eb|--------------------------------------------------------------|   



verso   



eb|--------------------------------------------------------------|   
Bb|--------------------------------------------------------------|   
Gb|--------------------------------------------------------------|   
Db|---2--2---2-XX--------2--2---2-XX--------2--2---2-XX----------|   
Ab|---0--0---0-XX--------0--0---0-XX--------0--0---0-XX----------|   
Eb|--------3-------3-2-0------3-------3-2-0------3-------3-2-0---|   



eb|--------------------------------------------------------------|   
Bb|--------------------------------------------------------------|   
Gb|--------------------------------------------------------------|   
Db|---2--2---2-XX---------9--9--7--9-XX--7--6--4-----------------|   
Ab|---0--0---0-XX---------7--7--5--7-XX--5--4--2-----------------|   
Eb|--------3-------3-2-0-----------------------------------------|   




eb|--------------------------------------------------------------|   
Bb|--------------------------------------------------------------|   
Gb|--------------------------------------------------------------|   
Db|---9--9--7--9-XX--7--6--4-----9--9--7--9-XX--7--6--4----------|   
Ab|---7--7--5--7-XX--5--4--2-----7--7--5--7-XX--5--4--2----------|   
Eb|--------------------------------------------------------------|   




eb|--------------------------------------------------------------|   
Bb|--------------------------------------------------------------|   
Gb|--------------------------------------------------------------|   
Db|---9--9--7--9-XX--7--6--4----5----------7---------------------|   
Ab|---7--7--5--7-XX--5--4--2----3--2-------5--4------------------|   
Eb|----------------------------------5--3--------7--5------------|   




eb|--------------------------------------------------------------|   
Bb|--------------------------------------------------------------|   
Gb|--------------------------------------------------------------|   
Db|---9--9----------------9--9----------------9--9---------------|   
Ab|---7--7--5-------------7--7--5-------------7--7--5------------|   
Eb|------------6/5--3--0-----------6/5--3--0-----------6/5--3--0-|   





eb|--------------------------------------------------------------|   
Bb|--------------------------------------------------------------|   
Gb|--------------------------------------------------------------|   
Db|---9--9---------------2--2---2-XX-----------------------------|   
Ab|---7--7--5------------0--0---0-XX-----------------------------|   
Eb|------------6/5--3h4-------3-------3-2-0----------------------|   





Clichê da guitarra 1 no verso   



eb|--------------------------------------------------------------|   
Bb|--------------------------------------------------------------|   
Gb|---7b9r7p5-----5----------------------------------------------|   
Db|------------7-----7--5----------------------------------------|   
Ab|------------------------7--6--5--3--5--3----------------------|   
Eb|------------------------------------------5--4--3-------------|   




solo 1   


eb|--------------------7--7--7---7--7----------------------------|   
Bb|--------------------7--7--7---7--7-----------------12---------|   
Gb|--------------------8--8--8---8--8--12/13\---------12---------|   
Db|--9--9------------------------------11/12\--13--13-----13\----|   
Ab|--7--7--5-----------------------------------14--14-----14\----|   
Eb|----------6/5--3-0--------------------------------------------|   




eb|--------------------------------15---------19b21--19--18------|   
Bb|--XX--15---------13--14/15--XX--15------15--------------------|   
Gb|--XX--16--12/13--15--15/16--XX------/16-----------------------|   
Db|----------11/12-----------------------------------------------|   
Ab|--------------------------------------------------------------|   
Eb|--------------------------------------------------------------|   




eb|--17b19r17---15h16-----10b12--10-7-6--------------------------|   
Bb|-------------------15-----------------10b12r10p8--10--8-------|   
Gb|--------------------------------------------------------------|   
Db|--------------------------------------------------------------|   
Ab|--------------------------------------------------------------|   
Eb|--------------------------------------------------------------|   




eb|--------------------------------------------------------------|   
Bb|--------------------------------------------------------------|   
Gb|---9-7--------------9-8-7/------------------------------------|   
Db|-------9-8-7h9p7\5--------------------------------------------|   
Ab|--------------------------------------------------------------|   
Eb|--------------------------------------------------------------|   


base do solo 1   


eb|--------------------------------------------------------------|   
Bb|--------------------------8-----------------------------------|   
Gb|---6/7------------6/7-----7--6/7------------6/7-----7---------|   
Db|---5/6--XX--9--9--5/6--X--6--5/6--XX--9--9--5/6--X--6---------|   
Ab|--------XX--9--9-------X--7-------XX--9--9--------------------|   
Eb|--------------------------------------------------------------|   



INTERLUDIO   


eb|---------------------2---0---3---0---2--3h2--0--3--8h7--------|   
Bb|---------------------3---3---3---3---3-------3--3-------3-----|   
Gb|---------------------2-------0-------2----------0-------2-----|   
Db|---------------------0-------0-------0----------0-------------|   
Ab|---7--5----------------------2------------------2-------------|   
Eb|---------6/5--3--0-----------3------------------3-------------|   




eb|---3h2------0--3--8h7--0--2--0--3-3-3-3-3--1---3-3-3-3-3--1---|   
Bb|-------3----3--3-------3--3--3--3-3-3-3-3--1---3-3-3-3-3--1---|   
Gb|---------2-----0----------2-----4-4-4-4-4--2---4-4-4-4-4--2---|   
Db|---------------0----------0-----------------------------------|   
Ab|---------------2----------------------------------------------|   
Eb|---------------3----------------------------------------------|   




eb|---3-3-3-3-3--1--5-5-5-5-5-5-5-5------------------------------|   
Bb|---3-3-3-3-3--1--5-5-5-5-5-5-5-5------------------------------|   
Gb|---4-4-4-4-4--2--6-6-6-6-6-6-6-6------------------------------|   
Db|--------------------------------------------------------------|   
Ab|--------------------------------------------------------------|   
Eb|--------------------------------------------------------------|   


solo 2   



eb|---12-------12-----12-----12-----------12---------------------|   
Bb|---15b17----15b17--15b17--15b17-----------15------------------|   
Gb|---------------------------------14b16-------16r14--14--12----|   
Db|--------------------------------------------------------------|   
Ab|--------------------------------------------------------------|   
Eb|--------------------------------------------------------------|   



eb|--------------------------------------------------------------|   
Bb|---15b17--15\-------------------------5---7b8r7--8r7p5--------|   
Gb|---------------------------------4--6---6---------------------|   
Db|------------------2---4b5r4--4/6------------------------------|   
Ab|--------------2/4---4-----------------------------------------|   
Eb|--------------------------------------------------------------|   



eb|---7----7-------------------0--0--0--0------------------------|   
Bb|---7b9--9r7p5------------5--5--3--2--0--2h0--2--0-------------|   
Gb|---------------6--4--4/6----------------2h0--2--0h1/2/4-------|   
Db|--------------------------------------------------------------|   
Ab|--------------------------------------------------------------|   
Eb|--------------------------------------------------------------|   



eb|--------------------------------------------------------------|   
Bb|---0-0--0-0--0-0----------------15b17--15---------------------|   
Gb|---4-4--2-2--1-1---------------------------14b16--14--14p12---|   
Db|-----------------4-4--2h0--2\1--------------------------------|   
Ab|--------------------------------------------------------------|   
Eb|--------------------------------------------------------------|   




eb|--------------------------------------------------------------|   
Bb|--------14\12-------------------------------------------------|   
Gb|---------------6b7r6--4---------------------------------------|   
Db|-14-12--14\12-----------6b7r6--4----------------------XX--4---|   
Ab|---------------------------------4b5r4--2-------------XX--2---|   
Eb|------------------------------------------4b5r4--0--2---------|   



BASE DO SOLO 2   



eb|--------------------------------------------------------------|   
Bb|--------------------------8-------------------------8---------|   
Gb|---6/7--XX--9--9--6/7--X--7--6/7--XX--9--9--6/7--X--7---------|   
Db|---5/6--XX--9--9--5/6--X--6--5/6--XX--9--9--5/6--X--6---------|   
Ab|--------------------------7-------------------------7---------|   
Eb|--------------------------------------------------------------|   



eb|--------------------------------------------------------------|   
Bb|--------------------------------------------------------------|   
Gb|--------------------------------------------------------------|   
Db|---6--6-6-6-6--9--4-2-4-2-4-2-4-5-6--6-6-6-6--9--4-2-4-2-4-2--|   
Ab|---4--4-4-4-4--7--2-0-2-0-2-0-2-3-4--4-4-4-4--7--2-0-2-0-2-0--|   
Eb|--------------------------------------------------------------|   



eb|--------------------------------------------------------------|   
Bb|--------------------------------------------------------------|   
Gb|--------------------------------------------------------------|   
Db|-----------------4-5-6--6-6-6-6--9--4-2-4-2-4-2---------------|   
Ab|-----------------2-3-4--4-4-4-4--7--2-0-2-0-2-0---------------|   
Eb|--------------------------------------------------------------|   




eb|--------------------------------------------------------------|   
Bb|--------------------------------------------------------------|   
Gb|--------------------------------------------------------------|   
Db|--------------------------------------4--4-4-4-4-4-4-4-4-4-4-4|   
Ab|------2--2-2-2-2-2-2-2-2-2-2-2-2------2--2-2-2-2-2-2-2-2-2-2-2|   
Eb|---3--0--0-0-0-0-0-0-0-0-0-0-0-0--3-4-------------------------|   



eb|--------------------------------------------------------------|   
Bb|--------------------------------------------------------------|   
Gb|--------------------------------------------------------------|   
Db|---4--2----9--9--11-9--11-9-X--9--9--11-9--11-9-X---4--4-4-4-4|   
Ab|---2--0----7--7--7--7--7--7-X--7--7--7--7--7--7-X---2--2-2-2-2|   
Eb|--------3-----------------------------------------------------|   



eb|--------------------------------------------------------------|   
Bb|--------------------------------------------------------------|   
Gb|--------------------------------------------------------------|   
Db|---4-4-4--4-4-4-------------------------------------XX--4-----|   
Ab|---2-2-2--2-2-2--2-2--------------------------------XX--2-----|   
Eb|-----------------0-0--2-2-2-2-2-2-2-2-2-2-2-2-2-2-2-----------|   



GUITARRA 1 ( INTERLUDIO 2 )   


eb|--------------------------------------------------------------|   
Bb|--------------------------------------------------------------|   
Gb|--------------------------------------------------------------|   
Db|--------------------------------------------------------------|   
Ab|---7--7--7--7--6--6--6--5--5--5--4--4--3--3--2--2-------------|(2x)   
Eb|--------------------------------------------------------------|   



eb|--------------------------------------------------------------|   
Bb|--------------------------------------------------------------|   
Gb|--------------------------------------------------------------|   
Db|---5--5--5--5--4--4--4--3--3--3--2--2--1--1--0--0-------------|(6x)   
Ab|--------------------------------------------------------------|   
Eb|--------------------------------------------------------------|   







VERSO FINAL   


eb|--------------------------------------------------------------|   
Bb|--------------------------------------------------------------|   
Gb|--------------------------------------------------------------|   
Db|---------------------------5-----------7----------------------|   
Ab|---4--3--4--5--7--6--7--8--3--2--------5--4-------------------|   
Eb|---2--1--2--3--5--4--5--6--------5--3-------7--5--------------|   



eb|--------------------------------------------------------------|   
Bb|--------------------------------------------------------------|   
Gb|--------------------------------------------------------------|   
Db|---9--9-------------9--9-------------5----------7-------------|   
Ab|---7--7--5----------7--7--5----------3--2-------5--4----------|   
Eb|-----------6\5-3-0----------6\5-3-0--------5--3-------7--5----|   



eb|--------------------------------------------------------------|   
Bb|--------------------------------------------------------------|   
Gb|--------------------------------------------------------------|   
Db|---9--9-------------9--9--------------------------------------|   
Ab|---7--7--5----------7--7--5-----------------------------------|   
Eb|-----------6\5-3-0----------6\5-3-0---------------------------|   



eb|--------------------------------------------------------------|   
Bb|-------------------------------8------------------------------|   
Gb|---4--2------------------------7------------------------------|   
Db|---2--0--3--2--------2---------6------------------------------|   
Ab|---------1--0--5--2--0--5--2---7------------------------------|   
Eb|---------------3--0-----3--0---0------------------------------|   







	  

Solicitar el vídeo de "Welcome to The Jungle" - Descargar Welcome to The Jungle mp3

welcome-to-the-jungle-by-guns-n-roses Tocar

Existe una video leccione para esta canción

vea ahora

140

Envie sus comentários.

0 comentários

 
LosAcordes
Buscar
auto avanzar rasgueos aumentar disminuir cambiar color esconder acordes gráficos
losacordes exhibir acordes losacordes youTube video losacordes ocultar tabs losacordes cambiar notación losacordes ir hacia arriba losacordes