A B C D E F G H I J K L M N O P Q R S T U V X Y Z 0-9
Katelyn Tarver

Início > Katelyn Ta... > acordes

Katelyn Tarver

Love Me Again

Dificultad:Ningún gradoNingún grado

por bombaXXX

tuner corregir añadir para songbook version para impresion version de texto version rtf e-mail
acordestablaturabajobateríaarmónicaflautacavacopiano Guitar Pro
acordes

Love Me Again

	  
Intro 
e|------------------|-----------------|-------------------------|---------------| 
B|------------------|-----------------|-------------------------|---------------| 
G|------------------|-----------------|-------------------------|---------------| 
D|------------------|-----------------|-------------------------|---------------| 
A|----5---5---5---5-|---9---9---9---9-|----12----12----12----12-|---7---7-------| 
E|--3---3---3---3---|-7---7---7---7---|-10----10----10----10----|-5---5---------| 

Verse 
e|------------------|-----------------|-------------------------|------------------| 
B|------------------|-----------------|-------------------------|------------------| 
G|------------------|-----------------|-------------------------|------------------| 
D|------------------|-----------------|-------------------------|------------------| x2 
A|----5---5---5---5-|---9---9---9---9-|----12----12----12----12-|----7---7---7---7-| 
E|--3---3---3---3---|-7---7---7---7---|-10----10----10----10----|--5---5---5---5---| 

e|------------------|-----------------|-------------------------|------------------| 
B|------------------|-----------------|-------------------------|------------------| 
G|------------4-----|-----------7-----|----------------11-------|--------6---------| 
D|------------------|-----------------|-------------------------|------------------|  
A|----5---5---5---5-|---9---9---9---9-|----12----12----12----12-|----7---7---------| 
E|--3---3---3---3---|-7---7---7---7---|-10----10----10----10----|--5---5-----------| 

Chorus 
e|-----------------|------------------|-----------------------|-----------------| 
B|-------0---------|------------------|-----------------------|-------0-------0-| 
G|-----------------|-------7----------|----------11-----------|-----------------| 
D|-----------------|------------------|-----------------------|-----------------| 
A|---5---5---5---7-|---9---9---9---12-|----12----12----12---5-|---5---5---5---5-| 
E|-3---3---3---5---|-7---7---7---9----|-10----10----10----2---|-3---3---3---3---| 

e|-----------------|------------------|-----------------------|-----------------| 
B|-------0---------|---------------10-|-----------------------|-------0-------0-| 
G|-----------------|-------7----------|----11----11-----------|-----------------| 
D|-----------------|------------------|-----------------------|-----------------| 
A|---5---5---5---7-|---9---9---9---12-|----12----12----12---5-|---5---5---5---5-| 
E|-3---3---3---5---|-7---7---7---9----|-10----10----10----2---|-3---3---3---3---| 

e|-----------------|------------------|-----------------------|-----------------| 
B|---0-------0-----|---------------10-|-----------------------|-------0-------0-| 
G|-----------------|-------7----------|----11----11-----------|-----------------| 
D|-----------------|------------------|-----------------------|-----------------| 
A|---5---5---5---7-|---9---9---9---12-|----12----12----12\--5-|---5---5---5---5-| 
E|-3---3---3---5---|-7---7---7---9----|-10----10----10----2---|-3---3---3---3---| 

e|-----------------|------------------|-----------------------|-----------------| 
B|-----------------|-3----------------|(7)--------------------|-----------3-----| 
G|-----------------|------------------|-----------------------|-----------------| 
D|-----------------|-4----------------|-7-----------------0---|-0---------------| 
A|-5---------------|------------------|-----------------------|---5---5---5---5-| 
E|-3---------------|------------------|-------------------2---|-3---3---3---3---| 

Verse 
e|-----------------|-----------------|------------------------|-----------------| 
B|---3-------------|-----------------|------------------------|-----------------| 
G|-------4---------|-------7---------|----------11------------|-------6---------|   
D|-----------5-----|-----------------|---------------(12)-----|-----------------|    
A|---5---5---5-----|---9-------9-----|----12----12----12------|---7---7---7-----| 
E|-3---3---3---x---|-7---7---7--x----|-10----10----10----x----|-5---5---5---x---|   
                                                                                     
e|-----------------|-----------------|------------------------|-----------------|     
B|---3-------------|-----------------|------------------------|-----------------|   
G|-------4---------|-------7---------|----------11------------|-------6---------|  
D|-----------5-----|-----------------|---------------(12)-----|-----------------| 
A|---5---5---5-----|---9-------9-----|----12----12----12------|---7---7---7---7-| 
E|-3---3---3---x---|-7---7---7---x---|-10----10----10----x----|-5---5---5---x---| 

e|-----------------|-----------------|-------------------------|-----------------| 
B|-----------------|-----------------|-------------------------|-----------------| 
G|-------4---------|-------7---------|----------11-------------|-------6---------| 
D|-----------------|-----------------|---------------(12)------|-----------------| 
A|---5---5---5---5-|---9---9---9---9-|----12----12----12----12-|---7---7---7---7-| 
E|-3---3---3---3---|-7---7---7---7---|-10----10----10----10----|-5---5---5---5---| 

Chorus 
e|-----------------|------------------|-----------------------|-----------------| 
B|-------0---------|------------------|-----------------------|-------0-------0-| 
G|-----------------|-------7----------|----------11-----------|-----------------| 
D|-----------------|------------------|-----------------------|-----------------| 
A|---5---5---5---7-|---9---9---9---12-|----12----12----12---5-|---5---5---5---5-| 
E|-3---3---3---5---|-7---7---7---9----|-10----10----10----2---|-3---3---3---3---| 

e|-----------------|------------------|-----------------------|-----------------| 
B|-------0---------|---------------10-|-----------------------|-------0-------0-| 
G|-----------------|-------7----------|----11----11-----------|-----------------| 
D|-----------------|------------------|-----------------------|-----------------| 
A|---5---5---5---7-|---9---9---9---12-|----12----12----12---5-|---5---5---5---5-| 
E|-3---3---3---5---|-7---7---7---9----|-10----10----10----2---|-3---3---3---3---| 

e|-----------------|------------------|-----------------------|-----------------| 
B|---0-------0-----|---------------10-|-----------------------|-------0-------0-| 
G|-----------------|-------7----------|----11----11-----------|-----------------| 
D|-----------------|------------------|-----------------------|-----------------| 
A|---5---5---5---7-|---9---9---9---12-|----12----12----12\--5-|---5---5---5---5-| 
E|-3---3---3---5---|-7---7---7---9----|-10----10----10----2---|-3---3---3---3---| 

e|-----------------|------------------|-----------------------|-----------------| 
B|-----------------|-3----------------|(7)--------------------|-----------3-----| 
G|-----------------|------------------|-----------------------|-----------------| 
D|-----------------|-4----------------|-7-----------------0---|-0---------------| 
A|-5---------------|------------------|-----------------------|---5---5---5---5-| 
E|-3---------------|------------------|-------------------2---|-3---3---3---3---| 

(This section is guitar-2 during the Chorus) 
e|----------10---------10------10------10------10------10---------10---------10-| 
B|---10h12------10h12------10------10------10------10------10h12------10h12-----| 
G|------------------------------------------------------------------------------| (x3) 
D|------------------------------------------------------------------------------| 
A|------------------------------------------------------------------------------| 
E|------------------------------------------------------------------------------| 

e|-10--------------|-10---------------|-14--------------------|-10--------------| 
B|-----------------|------------------|-----------------------|-----------------| 
G|-----------------|------------------|-----------------------|-----------------| 
D|-----------------|------------------|-----------------------|-----------------| 
A|-----------------|------------------|-----------------------|-----------------| 
E|-----------------|------------------|-----------------------|-----------------| 

Bridge 
     Bm   G      G               Bm            Bm                   D                A 
e|--2--2--3-|-3--3----3----3--3--2-|-2--2----2----2--2----|-5--5----5----5-5-5-|-5---------| 
B|--3--3--3-|-3--3----3----3--3--3-|-3--3----3----3--3--0-|-7--7----7----7-8-7-|-5------5--| 
G|--4--4--4-|-4--4----4----4--4--4-|-4--4----4----4--4--0-|-7--7----7----7-7-7-|-6------6--| (x2) 
D|--4--4--5-|-5--5----5----5--5--4-|-4--4----4----4--4----|-7--7----7----7-7-7-|-7----7----| 
A|--2--2--5-|-5--5----5----5--5--2-|-2--2----2----2--2----|-5--5----5----5-5-5-|-7----7----| 
E|--2--2--3-|-3--3----3----3--3--2-|-2--2----2----2--2----|-5--5----5----5-5-5-|-5---------| 

Chorus/Interlude 
          G                   Bm                 D                G 
e|------------------|-2--2---2---2---2-|------------------|-3----3---3---3---| 
B|-3----------------|-3----------------|-7--7---7---7---7-|-3--3---3---3---3-| 
G|-4----------------|-4----------------|-7----------------|-4----------------| (2x) 
D|-5--5---5---5---5-|-4----4---4---4---|-7----7---7---7---|-5----------------| 
A|-5----------------|------------------|------------------|-5----------------| 
E|-3----3---3---3---|------------------|------------------|-3----------------| 

           G            A           Bm            A            D           F#m             G 
e|-3--3--3--3--3--3-|-5--5-|-7--7--7--7--7--7-|-5--5-|-5--5--5--5--5--5-|-2--2-|-3--3--3--3--3--3--3--3-| 
B|-3--3--3--3--3--3-|-5--5-|-7--7--7--7--7--7-|-5--5-|-7--7--7--7--7--7-|-2--2-|-3--3--3--3--3--3--3--3-| 
G|-4--4--4--4--4--4-|-6--6-|-7--7--7--7--7--7-|-6--6-|-7--7--7--7--7--7-|-2--2-|-4--4--4--4--4--4--4--4-| (x2) 
D|-5--5--5--5--5--5-|-7--7-|-9--9--9--9--9--9-|-7--7-|-7--7--7--7--7--7-|-4--4-|-5--5--5--5--5--5--5--5-| 
A|-5--5--5--5--5--5-|-7--7-|-9--9--9--9--9--9-|-7--7-|-5--5--5--5--5--5-|-4--4-|-5--5--5--5--5--5--5--5-| 
E|-3--3--3--3--3--3-|-5--5-|-7--7--7--7--7--7-|-5--5-|-5--5--5--5--5--5-|-2--2-|-3--3--3--3--3--3--3--3-| 



Outro 
   G                  Bm                D                        build to a solid finish  
e|------------------|-----------------|-----------------|-------10--10--10--10--10--10-10---| 
B|------------------|-3---------------|-7---------------|------7---7---7---7---7---7---7----| 
G|-4----------------|-4---------------|-7---------------|-----0---0---0---0---0---0----0----| 
D|-5----------------|-4---------------|-7---------------|-----------------------------------| 
A|-5----------------|-3---------------|-5---------------|-----------------------------------| 
E|-3----------------|-----------------|-----------------|-----------------------------------| 


************************************ 

| \   Slide down 
| h   Hammer-on 
|( )  Ghost note 
| x   Slap/Beat-note 

************************************ 
	  

Solicitar el vídeo de "Love Me Again" - Descargar Love Me Again mp3

No existe una video leccione para esta canción

solicitar
Aumentar uno tonoAumentar uno tono
Aumentar uno semi-tonoAumentar uno semi-tono
Disminuir uno semi-tonoDisminuir uno semi-tono
Disminuir uno tonoDisminuir uno semi-tono
140

Envie sus comentários.

0 comentários

 
LosAcordes
Buscar
auto avanzar rasgueos aumentar disminuir cambiar color esconder acordes gráficos
losacordes exhibir acordes losacordes youTube video losacordes ocultar tabs losacordes cambiar notación losacordes ir hacia arriba losacordes