A B C D E F G H I J K L M N O P Q R S T U V X Y Z 0-9
Maná

Início > Maná > acordes

Maná

Rayando el Sol

Dificultad:PrincipiantePrincipiante

por Ivanei

tuner corregir añadir para songbook version para impresion version de texto version rtf e-mail
acordestablaturabajobateríaarmónicaflautacavacopiano Guitar Pro
acordes

Rayando el Sol

	  Maná  
 
Rayando el Sol - unplugged  
 
intro: 
    G       D         Em        C   
e ------------------------------------------- 
B ----8-------7-----------8-------8---------- 
G --7-----7-7---------7/9-----9-9------------ 
D ------9-------7-7-9-------9-------10-10-9-- 
A ------------------------------------------- 
E ------------------------------------------- 
 
    G       Bm        C                 D         Em 
e --------------------------------------------------- 
B ----8-------7-------------------------7------------ 
G --7-----7-7-------7----9-----------7--------------- 
D ------9-------9-9---10------7-9-10------7-7--9----- 
A -------------------------10---------------------7-- 
E --------------------------------------------------- 
 
            G C             D C 
Rayando el sol rayando por ti 
      G                 C            D C  
esta pena me duele me quema sin tu amor 
 
e --5--5-7-5-3-2-0-- 
B ------------------ 
G --5--5-7-5-3-3-0-- 
D ------------------ 
A ------------------ 
E ------------------ 
 
       Bm            C          D 
No me has llamado estoy desesperado 
 
e --5--5-7-8-10-8-7-- 
B ------------------- 
G --5--5-7-8-10-8-7-- 
D ------------------- 
A ------------------- 
E ------------------- 
 
     Bm          C                 D 
son muchas lunas las que te he llorado 
 
            G D        Em   C 
Rayando el sol desesperacion 
        G               Bm               C D  
es mas facil llegar al sol que a tu corazon 
              G D              Em C 
Me muero por ti  viviendo sin ti 
        G              Bm           C D  
y no aguanto me duele tanto estar asi 
             Em  
rayando el sol 
 
               G C              D C 
A tu casa yo fui y no te encontre 
 
e --5--5-5/7-5-3-2-0-- 
B -------------------- 
G --5--5-5/7-5-3-3-0-- 
D -------------------- 
A -------------------- 
E -------------------- 
 
       G                          C              D C  
en el parque, en la plaza, en el cine yo te busque 
 
e --5--5-7-5-7-8-7-- 
B ------------------ 
G --5--5-7-5-7-8-7-- 
D ------------------ 
A ------------------ 
E ------------------ 
 
    Bm          C                    D 
Te tengo atrapada entre mi piel y mi alma 
 
e --5-7-8-10-8-7-- 
B ---------------- 
G --5-7-8-10-8-7-- 
D ---------------- 
A ---------------- 
E ---------------- 
 
     Bm          C                D 
mas ya no puedo tanto y quiero estar junto a ti 
 
            G D        Em   C 
Rayando el sol desesperacion 
        G               Bm               C D  
es mas facil llegar al sol que a tu corazon 
              G D              Em C 
Me muero por ti  viviendo sin ti 
        G              Bm           C D  
y no aguanto me duele tanto estar asi 
             Em  
rayando el sol 
 
    C            D       
E ----------8-10^12-10/12--10--5-5--12-10--5-4/5--5-3-2-- 
B --8-10-12---------------------------------------------- 
G ------------------11/12--11--5-5--12-11--5-4/5--5-4-2-- 
D ------------------------------------------------------- 
A ------------------------------------------------------- 
E ------------------------------------------------------- 
          Bm    C            
E --10-12-14-10-12--12-12-12-14-15^14--14-- 
B -----------------------------------------  
G ----------------------------------------- 
D ----------------------------------------- 
A ----------------------------------------- 
E ----------------------------------------- 
 
    D 
e --14^15-15---------------------------------------------- 
B -----------15------------------------------------------- 
G --------------14-12-11^12^11---------------------------- 
D -----------------------------12------------------------- 
A --------------------------------12-10-9-9^10------------ 
E ---------------------------------------------12-10/12~-- 
 
G D Em C G Bm C D  
(solo sobre harmonia) 
 
            G D        Em   C 
Rayando el sol desesperacion 
        G               Bm               C D  
es mas facil llegar al sol que a tu corazon 
              G D              Em C 
Me muero por ti  viviendo sin ti 
        G              Bm           C D  
y no aguanto me duele tanto estar asi 
             G          D Em        C 
rayando el sol (rayando,     rayando)  
        G                Bm        C   
Rayando el sol, (rayando,  rayando)  
            D              G 
ay ay ay ay ay ay! Rayando el sol... 
 
    G           D               Em              C 
e ------------------------------7---5---3-3-3-3-3--3-5-7-7-- 
B ----------5---------------------3---3----------------8-8-- 
G ------4-5---5-7-7-7-7---5-7-5----------------------------- 
D --5-7----------------------------------------------------- 
A ---------------------------------------------------------- 
E ----------------------------------------------------------  
 
    G               Bm       C                  D           G 
e --7-7--7-7-7-8--7-7-5--5-5-5-7-5-5-7-3--3-3-3-2-----------3-- 
B --8-8--8-8-8-10-8-8-7--7-7-7-8-7-7-8-5--5-5-5-3--1-1------0--  
G -------------------------------------------------0-0--4-2-0-- 
D ------------------------------------------------------4-2-0--  
A ----------------------------------------------------------2-- 
E ----------------------------------------------------------3-- 
 
 
Cifrado por Ivanei Nunes - Banda Pherpa 
	  

Solicitar el vídeo de "Rayando el Sol" - Descargar Rayando el Sol mp3

No existe una video leccione para esta canción

solicitar
Aumentar uno tonoAumentar uno tono
Aumentar uno semi-tonoAumentar uno semi-tono
Disminuir uno semi-tonoDisminuir uno semi-tono
Disminuir uno tonoDisminuir uno semi-tono
140

Envie sus comentários.

0 comentários

 
LosAcordes
Buscar
auto avanzar rasgueos aumentar disminuir cambiar color esconder acordes gráficos
losacordes exhibir acordes losacordes youTube video losacordes ocultar tabs losacordes cambiar notación losacordes ir hacia arriba losacordes