Motorpsycho

Início > Motorpsych... > acordes

Cloudwalker A Darker Blue Tablatura

Motorpsycho

Dificultad:Ningún gradoNingún grado

por bombaXXX

tuner correct add songbook print version text version salvar en e-mail
acordesukuleletablaturabajobateríaarmónicaflautacavacopiano Guitar Pro
acordes

Cloudwalker A Darker Blue

	  
Tuning: D-A-D-A-D-E 

Intro 
E|-------------------------0-| 
D|-------0--------0----------| 
A|----5--------5--------5----| 
D|-0--------0--------0-------| (x3) 
A|---------------------------| 
D|---------------------------| 

E|---------| 
D|-------0-| 
A|----5----| 
D|-0-------| (x10) 
A|---------| 
D|---------| 

        | | Play this simultaneous 
E|----------------------------------|--------------------------------| 
D|----------------------------------|--------------------------------| 
A|----------12--14------------------|----------12--14----------------| 
D|-<12>--14--------12--14-16--------|-<12>--14--------12--14-16--9-7-| 
A|----------------------------14-12-|----------------------------9-7-| 
D|----------------------------------|----------------------------9-7-| 

E|-----------------------------------| 
D|-----------------------------------| 
A|-3-3-3-3/2-0--5-0--7/8\7--10/12\10-| 
D|-0-0-0-0-0-0--0-0--0-0-0---0--0--0-| (x4) 
A|-3-3-3-3/2-0--5-0--7/8\7--10/12\10-| 
D|-----------------------------------| 

Verse 

I've seen oblivion wait so temptingly 
The act of leaving finally set you free 
I planted one foot solidly in air 

E|---------------0--| 
D|---------------0--| 
A|---------------0--| 
D|----------12--12--| (x6) 
A|----12------------| 
D|-12----12---------| 

in makebelieve 

E|-----------|---------------| 
D|-----------|-------------0-| 
A|-2-2-2/3-5-|-2-2-2-2-2/3-5-| 
D|-0-0-0-0-0-|-0-0-0-0-0-0-0-| 
A|-2-2-2/3-5-|-2-2-2-2-2/3-5-| 
D|-----------|---------------| 

Verse 

I like the notion better then the thing 
I like the romance better than the fling 
I like the gospel better than the church 

E|---------------0--| 
D|---------------0--| 
A|---------------0--| 
D|----------12--12--| (x6) 
A|----12------------| 
D|-12----12---------| 

who made it untrue 

E|-----------|---------------| 
D|-----------|-------------0-| 
A|-2-2-2/3-5-|-2-2-2-2-2/3-5-| 
D|-0-0-0-0-0-|-0-0-0-0-0-0-0-| 
A|-2-2-2/3-5-|-2-2-2-2-2/3-5-| 
D|-----------|---------------| 

Chorus 

Cloudwalker 
Cloudwalker 

E|-----------------------------------| 
D|-----------------------------------| 
A|-3-3-3-3/2-0--5-0--7/8\7--10/12\10-| 
D|-0-0-0-0-0-0--0-0--0-0-0---0--0--0-| (x4) 
A|-3-3-3-3/2-0--5-0--7/8\7--10/12\10-| 
D|-----------------------------------| 

Bridge 
E|--------------------------------| 
D|--------------------------------| 
A|----------12--14----------------| 
D|-<12>--14--------12--14-16--9-7-| 
A|----------------------------9-7-| 
D|----------------------------9-7-| 

Verse 

Give me the fog where outlines fade away 
where rules are something you've chosen to obey 
This duty isn't what i signed up for 

E|---------------0--| 
D|---------------0--| 
A|---------------0--| 
D|----------12--12--| (x6) 
A|----12------------| 
D|-12----12---------| 

So let me go 

E|-----------|---------------| 
D|-----------|-------------0-| 
A|-2-2-2/3-5-|-2-2-2-2-2/3-5-| 
D|-0-0-0-0-0-|-0-0-0-0-0-0-0-| 
A|-2-2-2/3-5-|-2-2-2-2-2/3-5-| 
D|-----------|---------------| 

Verse 

I felt the calling, heard it loud and clear 
You move so far it changes into near 
Transformation, useless, sinful flesh 

E|---------------0--| 
D|---------------0--| 
A|---------------0--| 
D|----------12--12--| (x6) 
A|----12------------| 
D|-12----12---------| 

To sacred ideal 

E|-----------|---------------| 
D|-----------|-------------0-| 
A|-2-2-2/3-5-|-2-2-2-2-2/3-5-| 
D|-0-0-0-0-0-|-0-0-0-0-0-0-0-| 
A|-2-2-2/3-5-|-2-2-2-2-2/3-5-| 
D|-----------|---------------| 

Chorus 

Cloudwalker 
Cloudwalker 

E|-----------------------------------| 
D|-----------------------------------| 
A|-3-3-3-3/2-0--5-0--7/8\7--10/12\10-| 
D|-0-0-0-0-0-0--0-0--0-0-0---0--0--0-| (x4) 
A|-3-3-3-3/2-0--5-0--7/8\7--10/12\10-| 
D|-----------------------------------| 

Bridge 

Free me, don't leave me hangin' on 

E|----------------------|----------------------| 
D|---0-0-0-0------------|---0-0-0-0------------| 
A|-3-3-3-3-3--3-3-3-3-3-|-2-2-2-2-2--2-2-2-2-2-| 
D|-0-0-0-0-0--0-0-0-0-0-|-0-0-0-0-0--0-0-0-0-0-| 
A|-3-3-3-3-3--3-3-3-3-3-|-2-2-2-2-2--2-2-2-2-2-| 
D|----------------------|----------------------| 

E|----------------------|----------------------|-2-2-2-2-2--2-2-2-2-2-| 
D|---0-0-0-0------------|---0-0-0-0------------|-0-0-0-0-0--0-0-0-0-0-| 
A|-3-3-3-3-3--3-3-3-3-3-|-2-2-2-2-2--2-2-2-2-2-|-0-0-0-0-0--0-0-0-0-0-| 
D|-0-0-0-0-0--0-0-0-0-0-|-0-0-0-0-0--0-0-0-0-0-|-0-0-0-0-0--0-0-0-0-0-| 
A|-3-3-3-3-3--3-3-3-3-3-|-2-2-2-2-2--2-2-2-2-2-|-0-0-0-0-0--0-0-0-0-0-| 
D|----------------------|----------------------|----------------------| 

Free me, don't let it turn to blue 

E|----------------------|----------------------| 
D|---0-0-0-0------------|---0-0-0-0------------| 
A|-3-3-3-3-3--3-3-3-3-3-|-2-2-2-2-2--2-2-2-2-2-| 
D|-0-0-0-0-0--0-0-0-0-0-|-0-0-0-0-0--0-0-0-0-0-| 
A|-3-3-3-3-3--3-3-3-3-3-|-2-2-2-2-2--2-2-2-2-2-| 
D|----------------------|----------------------| 

E|----------------------|----------------------|-2-2-2-2-2--2-2-2-2-2-| 
D|---0-0-0-0------------|---0-0-0-0------------|-0-0-0-0-0--0-0-0-0-0-| 
A|-3-3-3-3-3--3-3-3-3-3-|-2-2-2-2-2--2-2-2-2-2-|-0-0-0-0-0--0-0-0-0-0-| 
D|-0-0-0-0-0--0-0-0-0-0-|-0-0-0-0-0--0-0-0-0-0-|-0-0-0-0-0--0-0-0-0-0-| 
A|-3-3-3-3-3--3-3-3-3-3-|-2-2-2-2-2--2-2-2-2-2-|-0-0-0-0-0--0-0-0-0-0-| 
D|----------------------|----------------------|----------------------| 

Bridge 
E|----------|----------|-------------|---------| 
D|-0-0------|-0-0------|-0-0--2-0--0-|-0-0-0---| 
A|-5-5--7-5-|-4-4--7-4-|-3-3--3-3--2-|-2-2---2-| 
D|-0-0--0-0-|-0-0--0-0-|-0-0-------0-|-0-0-----| (x2) 
A|----------|----------|-------------|---------| 
D|----------|----------|-------------|---------| 

E|---------0---| 
D|-0-0-0-0---0-| 
A|-5-5-5-5---5-| 
D|-0-0-0-0-----| (x5) 
A|-------------| 
D|-------------| 
     
       | | Play this simultaneous 
E|----------------------------------|--------------------------------| 
D|----------------------------------|--------------------------------| 
A|----------12--14------------------|----------12--14----------------| 
D|-<12>--14--------12--14-16--------|-<12>--14--------12--14-16--9-7-| 
A|----------------------------14-12-|----------------------------9-7-| 
D|----------------------------------|----------------------------9-7-| 

E|----------------------------------|--------------------------------| 
D|----------------------------------|--------------------------------| 
A|----------12--14------------------|----------12--14----------------| 
D|-<12>--14--------12--14-16--------|-<12>--14--------12--14-16--9-7-| 
A|----------------------------14-12-|----------------------------9-7-| 
D|----------------------------------|----------------------------9-7-| 

                                   | | Play this simultaneous 
E|--------------------------------------------------------------------------| 
D|-(0)(0)(0)(0)(0)(0)(0)(0)(0)(0)(0)(0)-(0)(0)(0)(0)(0)(0)(0)(0)(0)(0)(0)(0)| 
A|--5--5--5--5--5--5--5--5--5--5--5--5---7--7--7--7--7--7--7--7--7--7--7--7-| 
D|--------------------------------------------------------------------------| 
A|--------------------------------------------------------------------------| 
D|--------------------------------------------------------------------------| 

E|--------------------------------------------------------------------------| 
D|-(0)(0)(0)(0)(0)(0)(0)(0)(0)(0)(0)(0)-(0)(0)(0)(0)(0)(0)(0)(0)(0)(0)(0)(0)| 
A|--8--8--8--8--8--8--8--8--8--8--8--8--10-10-10-10-10-10-10-10-10-10-10-10-| 
D|--------------------------------------------------------------------------| 
A|--------------------------------------------------------------------------| 
D|--------------------------------------------------------------------------| 

E|-------------------------------------| 
D|-(0)(0)(0)(0)(0)(0)(0)(0)(0)(0)(0)(0)| 
A|-12-12-12-12-12-12-12-12-12-12-12-12-| 
D|-------------------------------------| 
A|-------------------------------------| 
D|-------------------------------------| 

  (This is actually played on bass guitar) 
E|-----------------| 
D|-----------------| 
A|-----------------| 
D|-----------------| 
A|-----------------| 
D|-12-10-9-7-5-3-0-| 

E|-----------------------------------| 
D|-----------------------------------| 
A|-3-3-3-3/2-0--5-0--7/8\7--10/12\10-| 
D|-0-0-0-0-0-0--0-0--0-0-0---0--0--0-| (x4) 
A|-3-3-3-3/2-0--5-0--7/8\7--10/12\10-| 
D|-----------------------------------| 


Chorus 

Cloudwalker 
Cloudwalker 

E|-----------------------------------| 
D|-----------------------------------| 
A|-3-3-3-3/2-0--5-0--7/8\7--10/12\10-| 
D|-0-0-0-0-0-0--0-0--0-0-0---0--0--0-| (x4) 
A|-3-3-3-3/2-0--5-0--7/8\7--10/12\10-| 
D|-----------------------------------| 

Don't let go 
Don't say stop 

E|-----------------------------------| 
D|-----------------------------------| 
A|-3-3-3-3/2-0--5-0--7/8\7--10/12\10-| 
D|-0-0-0-0-0-0--0-0--0-0-0---0--0--0-| (x4) 
A|-3-3-3-3/2-0--5-0--7/8\7--10/12\10-| 
D|-----------------------------------| 

Outro 
E|----------|----------|-----------<12>-| 
D|-0-0------|-0-0------|-0-0--2-0--<12>-| 
A|-5-5--7-5-|-4-4--7-4-|-3-3--3-3--<12>-| 
D|-0-0--0-0-|-0-0--0-0-|-0-0-------<12>-| 
A|----------|----------|-----------<12>-| 
D|----------|----------|-----------<12>-| 


************************************ 

| /   Slide up 
| \   Slide down 
| <>  Pinch 
| ()  Mute 

************************************ 
	  

No existe una video leccione para esta canción

request
LosAcordes
Buscar
auto avanzar rasgueos aumentar disminuir cambiar color esconder acordes gráficos
losacordes exhibir acordes losacordes youTube video losacordes ocultar tabs losacordes ir hacia arriba losacordes