A B C D E F G H I J K L M N O P Q R S T U V X Y Z 0-9
Naruto

Início > Naruto > acordes

Naruto

Grief And Sorrow

Dificultad:PrincipiantePrincipiante

por mayatatu

tuner corregir añadir para songbook version para impresion version de texto version rtf e-mail
acordestablaturabajobateríaarmónicaflautacavacopiano Guitar Pro
acordes

Grief And Sorrow

	  E|---------3----2----------------- 
B|--------------------3----------- 
G|-------------------------------- 
D|---2---------------------------- 
A|-------------------------------- 
E|-0------------------------------ 

E|---------3----2----------------- 
B|--------------------0----------- 
G|-------------------------------- 
D|---2---------------------------- 
A|-------------------------------- 
E|-0------------------------------ 

E|-------------0------------------- 
B|------------3-------------------- 
G|-----------4--------------------- 
D|----------5---------------------- 
A|---------5----------------------- 
E|-0------------------------------- 

E|-------------------------------- 
B|----------1--------------------- 
G|--------0----------0------------ 
D|------2---------------2--------- 
A|----3--------------------------- 
E|-------------------------------- 

E|---------3-2-------------------- 
B|-------3-----3------------------ 
G|-----2---------2---------------- 
D|---0--------------0------------- 
A|-------------------------------- 
E|-------------------------------- 

E|-------------------------------- 
B|-----------0-------------------- 
G|-----------------0-------------- 
D|----0--------------------------- 
A|-------------------------------- 
E|-3------------------------------ 

E|---------2---------------------- 
B|-----------------3-------------- 
G|----2--------------------------- 
D|-0------------------------------ 
A|-------------------------------- 
E|-------------------------------- 

E|------------0-------------------- 
B|-----------3--------------------- 
G|----------4---------------------- 
D|---------5----------------------- 
A|--------5------------------------ 
E|-0------------------------------- 

E|-------------------------------- 
B|-------1------------------------ 
G|-----0------------0------------- 
D|---2-----------------2---------- 
A|-3------------------------------ 
E|-------------------------------- 

E|----------3---------2----------- 
B|-------------------------------- 
G|-----2---------2---------------- 
D|-0------------------------------ 
A|-------------------------------- 
E|-------------------------------- 

E|-------3-----2------------------ 
B|---------------------3---------- 
G|-------------------------------- 
D|---2---------------------------- 
A|-------------------------------- 
E|-0------------------------------ 

E|-------3-------2---------------- 
B|----------------------3--------- 
G|-------------------------------- 
D|---2---------------------------- 
A|-------------------------------- 
E|-0------------------------------ 

E|-------------------------------- 
B|-------1------------------------ 
G|-----0-------------------------- 
D|---2---------------------------- 
A|-3------------------------------ 
E|-------------------------------- 

E|-------------------------------- 
B|-------------------------------- 
G|----------2--------------------- 
D|-----4-------------------------- 
A|-2------------------------------ 
E|-------------------------------- 

E|------------------0-------------- 
B|-----------0--------------0------ 
G|--------------0--------0--------- 
D|-----2--------------------------- 
A|--------------------------------- 
E|-0------------------------------- 

E|-------------------------------- 
B|-------0------------------------ 
G|-----0-------------------------- 
D|---2---------------------------- 
A|-3------------------------------ 
E|-------------------------------- 

E|-------------------------------- 
B|-------------------------------- 
G|-------2------------------------ 
D|----4--------------------------- 
A|-2------------------------------ 
E|-------------------------------- 

E|-------------------------------- 
B|--------0----------------------- 
G|------0------------------------- 
D|----0--------------------------- 
A|-------------------------------- 
E|-3------------------------------ 

E|---------2---------------------- 
B|----------------3--------------- 
G|-----2-------------------------- 
D|-0------------------------------ 
A|-------------------------------- 
E|-------------------------------- 

E|-------------------------------- 
B|----------0--------------------- 
G|-------0------------------------ 
D|----2--------------------------- 
A|-3------------------------------ 
E|-------------------------------- 

E|-------------------------------- 
B|-------------------------------- 
G|-------2------------------------ 
D|----4--------------------------- 
A|-2------------------------------ 
E|-------------------------------- 

E|----------2--0------------------- 
B|---------------0----------------- 
G|-------0---------2--------------- 
D|----2---------------------------- 
A|--------------------------------- 
E|-0------------------------------- 

E|-------------------------------- 
B|-------------0------------------ 
G|-------------------------------- 
D|---2---------------------------- 
A|-3------------------------------ 
E|-------------------------------- 

E|-------------------------------- 
B|-------------------------------- 
G|-------2------------------------ 
D|----4--------------------------- 
A|-2------------------------------ 
E|-------------------------------- 

E|--------0--------------0-------- 
B|-------------------------------- 
G|----0-------------0--------0---- 
D|-------------------------------- 
A|-0-------------0---------------- 
E|-------------------------------- 

E|--------0----------0------------ 
B|-------------------------------- 
G|-----0----------0-------0------- 
D|-------------------------------- 
A|-------------------------------- 
E|--0---------0------------------- 

E|--------0----------0----------- 
B|------------------------------- 
G|-----0----------0-------0------ 
D|------------------------------- 
A|--0--------0------------------- 
E|------------------------------- 

E|--------0----------0------------ 
B|-------------------------------- 
G|-----0----------0-------0------- 
D|-------------------------------- 
A|-------------------------------- 
E|--0---------0------------------- 
	  

Solicitar el vídeo de "Grief And Sorrow" - Descargar Grief And Sorrow mp3

No existe una video leccione para esta canción

solicitar
140

Envie sus comentários.

1 comentários

amzdominongamzdominong
hace 517 años atrás
i like it
 
LosAcordes
Buscar
auto avanzar rasgueos aumentar disminuir cambiar color esconder acordes gráficos
losacordes exhibir acordes losacordes youTube video losacordes ocultar tabs losacordes cambiar notación losacordes ir hacia arriba losacordes