Seether

Início > Seether > acordes

Feels Like Dying Tablatura

Seether

Dificultad:Ningún gradoNingún grado

por IronPower4Ever

tuner correct add songbook print version text version salvar en e-mail
acordesukuleletablaturabajobateríaarmónicaflautacavacopiano Guitar Pro
acordes

Feels Like Dying

	  
Tuning DADGBE  

Note 1:  
Whenever a chord is strummed multiple times I just placed it once in the correct position  
within the measure when it starts to be strummed.  

Note 2:  
Anytime a riff has a designation of Lead or Rhythm, it is played at the exact same time as  
its counterpart (Lead or Rhythm).  

Note 3: Song is in 3/4 time.  

verse 1  
E|---------------------------|---------------------------| 
B|---------------------------|---------------------------| 
G|---------------------------|---------------------------| 
D|---------------------------|---------------------------| (x8) 
A|-----2---2--------2---2----|-----5---5--------7---7----| 
D|-2------2---2-2------2---2-|-5------5---5-7------7---7-| 
   |_|_|_| |_|__|_| |_|_|_|    |_|_|_| |_|__|_| |_|_|_|   

Pre-Chorus 1 Lead 
E|--------------------------------|-------------------------------------| 
B|--------------------------------|-------------------------------------| 
G|-7--9-9--9-9--7-7--9-9---12--14-|-14b--14-14--12-14--12-14---9---7----| 
D|--------------------------------|-------------------------------------| (x4) 
A|--------------------------------|-------------------------------------| 
D|--------------------------------|-------------------------------------| 
   |_|__|_|  |_|__|_|  |_|__|_|      |__|____|_|    |_|____|_| |_|_|_|   

Pre-Chorus 1 Rhythm  
E|---------------------------|---------------------------| 
B|---------------------------|---------------------------| 
G|---------------------------|---------------------------| 
D|---------------------------|---------------------------| (x4) 
A|-----2---2--------2---2----|-----5---5--------7---7----| 
D|-2------2---2-2------2---2-|-5------5---5-7------7---7-| 
   |_|_|_| |_|__|_| |_|_|_|    |_|_|_| |_|__|_| |_|_|_|   

Chorus 1                x2|                        x2|  
E|--------------------------|--------------------------| 
B|--------------------------|--------------------------| 
G|-5------------------------|-2------------------------| 
D|-5------------------------|-2------------------------| 
A|-3------------------------|-0------------------------| 
D|--------------------------|--------------------------| 
   |_|_|_| |_|_|_| |_|_|_|    |_|_|_| |_|_|_| |_|_|_|   

                          x2|                           
E|--------------------------|--------------------------|--------------------------| 
B|--------------------------|--------------------------|--------------------------| 
G|-5------------------------|-2------------------------|--------------------------| 
D|-5------------------------|-2------------------------|-5------------------------| 
A|-3------------------------|-0------------------------|-5------------------------| 
D|--------------------------|--------------------------|-5------------------------| 
   |_|_|_| |_|_|_| |_|_|_|    |_|_|_| |_|_|_| |_|_|_|    |_|_|_| |_|_|_| |_|_|_|   

Pre-Verse  
E|---------------------------|---------------------------| 
B|---------------------------|---------------------------| 
G|---------------------------|---------------------------| 
D|---------------------------|---------------------------| (x2)  
A|-----2---2--------2---2----|-----5---5--------7---7----| 
D|-2------2---2-2------2---2-|-5------5---5-7------7---7-| 
   |_|_|_| |_|__|_| |_|_|_|    |_|_|_| |_|__|_| |_|_|_|   

verse 2  
E|---------------------------|---------------------------| 
B|---------------------------|---------------------------| 
G|---------------------------|---------------------------| 
D|---------------------------|---------------------------| (x8)  
A|-----2---2--------2---2----|-----5---5--------7---7----| 
D|-2------2---2-2------2---2-|-5------5---5-7------7---7-| 
   |_|_|_| |_|__|_| |_|_|_|    |_|_|_| |_|__|_| |_|_|_|   

Pre-Chorus 2 Lead  
E|-10--12-12--12-12--10-10--12-12---15--17-|-19--17-17--15-17--15-17---12---10----| 
B|-----------------------------------------|--------------------------------------| 
G|-----------------------------------------|--------------------------------------| 
D|-----------------------------------------|--------------------------------------| (x4)  
A|-----------------------------------------|--------------------------------------| 
D|-----------------------------------------|--------------------------------------| 
    |_|____|_|    |_|____|_|    |_|__|_|      |_|____|_|    |_|____|_|  |_|__|_|   

Pre-Chorus 2 Rhythm  
E|---------------------------|---------------------------| 
B|---------------------------|---------------------------| 
G|---------------------------|---------------------------| 
D|---------------------------|---------------------------| (x4)  
A|-----2---2--------2---2----|-----5---5--------7---7----| 
D|-2------2---2-2------2---2-|-5------5---5-7------7---7-| 
   |_|_|_| |_|__|_| |_|_|_|    |_|_|_| |_|__|_| |_|_|_|   

Chorus 2                x2|                        x2|  
E|--------------------------|--------------------------| 
B|--------------------------|--------------------------| 
G|-5------------------------|-2------------------------| 
D|-5------------------------|-2------------------------| (x3)  
A|-3------------------------|-0------------------------| 
D|--------------------------|--------------------------| 
   |_|_|_| |_|_|_| |_|_|_|    |_|_|_| |_|_|_| |_|_|_|   

                          x2|                           
E|--------------------------|--------------------------|--------------------------| 
B|--------------------------|--------------------------|--------------------------| 
G|-5------------------------|-2------------------------|--------------------------| 
D|-5------------------------|-2------------------------|-5------------------------| 
A|-3------------------------|-0------------------------|-5------------------------| 
D|--------------------------|--------------------------|-5------------------------| 
   |_|_|_| |_|_|_| |_|_|_|    |_|_|_| |_|_|_| |_|_|_|    |_|_|_| |_|_|_| |_|_|_|   

Outro  
E|---------------------------|---------------------------| 
B|---------------------------|---------------------------| 
G|---------------------------|---------------------------| 
D|---------------------------|---------------------------| (x2)  
A|-----2---2--------2---2----|-----5---5--------7---7----| 
D|-2------2---2-2------2---2-|-5------5---5-7------7---7-| 
   |_|_|_| |_|__|_| |_|_|_|    |_|_|_| |_|__|_| |_|_|_| 


************************************ 

| b  Bend 

************************************ 
	  

No existe una video leccione para esta canción

request
LosAcordes
Buscar
auto avanzar rasgueos aumentar disminuir cambiar color esconder acordes gráficos
losacordes exhibir acordes losacordes youTube video losacordes ocultar tabs losacordes ir hacia arriba losacordes