A B C D E F G H I J K L M N O P Q R S T U V X Y Z 0-9
The Strokes

Início > The Stroke... > acordes

The Strokes

Reptilia(completa)

Dificultad:IntermedioIntermedio

por CDF da guitarra

tuner corregir añadir para songbook version para impresion version de texto version rtf e-mail
acordestablaturabajobateríaarmónicaflautacavacopiano Guitar Pro
acordes

Reptilia(completa)

	  Artista : The Strokes 
Música : Reptilia           
 
Introdução: 
 
        Baixo 
G|------------------------| 
D|------------------------| 
A|------------------------| 
E|-7-7-7-7-7-7-7-7-7-...--| 
 
depois entra esse riff: 
 
e|---------------------------------------------------| 
B|---------------------------------------------------| 
G|-7-7--7-------7-7--7--------------4-7---------4-7--|   
6|--------9--7---------9-7---6--6-6------6--6-6------|   
A|---------------------------------------------------|  
E|---------------------------------------------------| 
   Bm                        E 
G|---------------------------------------------------| 
D|---------------------------------------------------| 
A|---------------------------------------------------| 
E|-7-7-7-7-7-7-7-7-7-7-7-7---0-0-0-0-0-0-0-0-0-0-0-0-| 
 
Ponte: 
 
e|-10-10-10/5-5--5/7-7--7/9-9--9/7-7--7/9-9--9/5-5--5/10-10--|  
B|--x-x---x/x-x--x/x-x--x/x-x--x/x-x--x/x-x--x/x-x--x/x--x---|  
G|--x-x---x/x-x--x/x-x--x/x-x--x/x-x--x/x-x--x/x-x--x/x--x---|   
D|--9-9---8/3-3--3/5-5--5/7-7--7/5-5--5/7-7--7/3-3--3/9--9---|   
A|-----------------------------------------------------------|  
E|-----------------------------------------------------------| 
 
Refrão: 
 
e|----10----------9----------10-7/9-9--12-7/9-9--10-12-9/2-2-------5----10-| 
B|-12----12\10-10---10/12-12----------------------------------7/12---12----|  
G|-------------------------------------------------------------------------|   
D|-------------------------------------------------------------------------|   
A|-------------------------------------------------------------------------|  
E|-------------------------------------------------------------------------| 
 
Solo: 
 
e|--4------------------------|--4--------------------| 
b|----7-5-7-5---5------------|----7-5-7-5---5--------| 
G|------------7---7-6-7-6-4--|------------7---7-6-4--|  
D|---------------------------|-----------------------|  
A|---------------------------|-----------------------|            
E|---------------------------|-----------------------|       
 
e|-4/7-7-4/-0-2----7/10-10-7/--0-2---9/12-12-9/--5-7-4--9/12-12-9-7-5/-| 
b|--------------3------------------3-----------------------------------| 
G|---------------------------------------------------------------------| 
D|---------------------------------------------------------------------| 
A|---------------------------------------------------------------------| 
E|---------------------------------------------------------------------| 
 
E|--4------------------------|--4--------------| 
B|----7-5-7-5---5------------|----7-5-7-5------|  
G|------------7---7-6-7-6-4--|------------7-4--|   
D|---------------------------|-----------------|  
A|---------------------------|-----------------|          
E|---------------------------|-----------------|  
 
fim    
 
 
 
 
 

	  

Solicitar el vídeo de "Reptilia(completa)" - Descargar Reptilia(completa) mp3

No existe una video leccione para esta canción

solicitar
Aumentar uno tonoAumentar uno tono
Aumentar uno semi-tonoAumentar uno semi-tono
Disminuir uno semi-tonoDisminuir uno semi-tono
Disminuir uno tonoDisminuir uno semi-tono
140

Envie sus comentários.

0 comentários

 
LosAcordes
Buscar
auto avanzar rasgueos aumentar disminuir cambiar color esconder acordes gráficos
losacordes exhibir acordes losacordes youTube video losacordes ocultar tabs losacordes cambiar notación losacordes ir hacia arriba losacordes